Get It On (ver2) Bass Tab - Turbonegro




Riff 1 "intro
G|------------------|
D|--9~--------------|
A|------------------|
E|------------------|

Riff 2 verse
G|-----------------------|
D|222222---------3-------|
A|-------0-33333---------|
E|-----------------------| x2

then on the third time...

G|--------------------------------|
D|22222---------3-2--------5-7----|
A|------0-33333-------------------|
E|--------------------------------|

this goes on a while, you ca lisen self how many times=)

Riff 4 chours

G|-----------------------------|
D|-----------------------------|
A|-3333333355555557777777777777|
E|-----------------------------| x 3

then..

G|-----------------|
D|-----------------|
A|-3333333355555555|
E|-----------------|

then you jump to riff 2 again.

thats all i can..

koz

ĂŽnscrie-te la newsletter


Join the ranks ! LIKE us on Facebook