I Got Erection Bass Tab - Turbonegro




Band: Turbonegro
Song: I Got Erection
Album: a*s Cobra

This is a very simple, but yet an EXTREMLY cool song!

It goes like this:

Standard tuning: EADG


G|-------------------------------------------------------------------|
D|-------------------------------------------------------------------|
A|-7-7-7-7---------8-8-8-8-8-8-8-8-10-10-10-10-8-10-8-8-7-7-7-7-7-7-7|
E|---------5-5-5-5---------------------------------------------------|

This continue all the way through the song, but at the end they play:

G|-------------------------------------------------------------------|
D|-------------------------------------------------------------------|
A|-7-7-7-7---------8-8-8-8-8-8-8-8-10--10--8-10-8-10--10--8-10-8-----|
E|---------5-5-5-5---------------------------------------------------|

G|-------------------------------------------------------------------|
D|-------------------------------------------------------------------|
A|-10--10--8-10-8-7(ring out)----------------------------------------|
E|-------------------------------------------------------------------|

I think this is all you need, but this is my first tab so be to nice me:)

ĂŽnscrie-te la newsletter


Join the ranks ! LIKE us on Facebook