Just Flesh Bass Tab - Turbonegro




From the album: a*s Cobra


Intro/Verse
E|-5-5-5-5-5-1-1-1-1-1-1-----------------------|
A|-----------------------5-5-5-5-5-7-7-7-7-7-7-|
D|---------------------------------------------|
G|---------------------------------------------|

Pre-Chorus
E|-1-1-1-1-1-1-1-1-0-0-0-0-0-0-0-0-1-1-1-1-1-1-1-1-3-3-3-3-3-3-3-3-|
A|-----------------------------------------------------------------|
D|-----------------------------------------------------------------|
G|-----------------------------------------------------------------|

Chorus 1
E|-1-1-1-1-3-3-3-3-5-5-5-5-5-5-5-5-|
A|---------------------------------|
D|---------------------------------|
G|---------------------------------|

Chorus 2
E|-1-1-1-1-3-3-3-3-1-1-1-1-3-|
A|---------------------------|
D|---------------------------|
G|---------------------------|

Ending
E|-5-3-5-|
A|-------|
D|-------|
G|-------|

Intro/verse x4
Pre- Chorus x1
Verse x4
Pre- Chorus x1
Chorus 1 x2
Chorus 2 x1
verse x4
pre- Chorus x1
Chorus 1 x7
Ending x1

ĂŽnscrie-te la newsletter


Join the ranks ! LIKE us on Facebook