No Im Alpha Male (ver2) Tab - Turbonegro




No, I'm Alpha Male
Turbonegro
Retox

Tabbed by Jeff Orom

Standard Tuning, listen to the song for timing.


Intro Solo (You can use hammer-ons and pull-offs)
e|-10-0-12-0-10-0-12-0-10-0-12-0-10-0-12-0-7-0-10-0-7-0-10-0-7-0-10-0-7-0-10-0-|
B|-----------------------------------------------------------------------------|
G|-----------------------------------------------------------------------------|
D|-----------------------------------------------------------------------------|
A|-----------------------------------------------------------------------------|
E|-----------------------------------------------------------------------------|

e|-5-0-8-0-5-0-8-0-5-0-8-0-5-0-8-0-3-0-5-0-3-0-5-0-3-0-5-0-3-0-5-|
B|---------------------------------------------------------------|
G|---------------------------------------------------------------|
D|---------------------------------------------------------------|
A|---------------------------------------------------------------|
E|---------------------------------------------------------------|


Intro
e|---------------------------------------------------------------|
B|---------------------------------------------------------------|
G|---------------------------------------------------------------|
D|-9--7--9----12-11--7--10---9--7--9--7---9-----5--5--7--7-------|
A|-7--5--7----10--9--5--8----7--5--7--5---7-----3--3--5--5-------|
E|---------------------------------------------------------------| x2


Chorus                                                            /play 4x
e|---------------------------------------------------------------|---------|
B|---------------------------------------------------------------|---------|
G|---------------------------------------------------------------|---------|
D|-9-7-9--9-9-9-9-9-9---12-11--7--10--9--7--9--7--9--7-7-7-7-7-7-|---------|
A|-7-5-7--7-7-7-7-7-7---10--9--5---8--7--5--7--5--7--5-5-5-5-5-5-|-----5h7-|
E|---------------------------------------------------------------|-5h7-----|

                                                                  /play 6x /use  wah
e|---------------------------------------------------------------|---------|----------|
B|---------------------------------------------------------------|---------|----------|
G|---------------------------------------------------------------|---------|----------|
D|-9-7-9--9-9-9-9-9-9---12-11--7--10--9--7--9--7--9--7-7-7-7-7-7-|---------|-7b-5~----|
A|-7-5-7--7-7-7-7-7-7---10--9--5---8--7--5--7--5--7--5-5-5-5-5-5-|-----5h7-|-------7~-|
E|---------------------------------------------------------------|-5h7-----|----------|


Verse
e|--------------------------------------------------------------------| 
B|-----------------------------------------------------------*12~~----|
G|--------------------------------------------------------------------|
D|-2-4-4-4-4-4-4-4--2-4-4-4-4-4-4-4--5-7-7-7-7-7-7-7--2-4-4-4-4-4-4-4-|
A|-0-2-2-2-2-2-2-2--0-2-2-2-2-2-2-2--3-5-5-5-5-5-5-5--0-2-2-2-2-2-2-2-|
E|--------------------------------------------------------------------| x2
*That note is played by a second guitar on the second play through.

After the third chorus, they play a different chord progression (Oh-Woah-Oh Section). 
Since I don't know the chords, I just play the verse again. I don't know the solo...

Order:
Intro Solo
Intro
Chorus
Verse
Chorus
Verse
Chorus
Oh-Woah-Oh Section
Solo
Chorus

ĂŽnscrie-te la newsletter


Join the ranks ! LIKE us on Facebook