Raggare Is A Bunch Of Motherfuckers Tab - Turbonegro




Raggare is a Bunch of Motherfuckers - Turbonegro
From the Album "a*s Cobra"
Tabbed by MattWV

b - bend
P.M.=== - pick hand muting

Intro:
E|--------------------0-0-0-0-0-0--| 
B|------0-0-0-0-0------------------| 
G|---------------------------------|
D|--9-9-----------7-7--------------|
A|--9-9-----------7-7--------------|
E|--7-7-----------5-5--------------|
        P.M.=====     P.M.=======

Verse: (alternate riffs as you like)
E|-------------------------------| 
B|-----------------------0----0--| 
G|-------------------------------|
D|--9--9-9--9-9-9---7--7----7----|
A|--9--9-9--9-9-9---7--7----7----|
E|--7--7-7--7-7-7---5--5----5----|

E|-------------------------------| 
B|-------------------------------| 
G|-------------------------------|
D|--9--9-9--9-9-9---7--7-7--7-7--|
A|--9--9-9--9-9-9---7--7-7--7-7--|
E|--7--7-7--7-7-7---5--5-5--5-5--|

Solo:
E|-----------------------------------------------| 
B|--7-----7--7-----7--7-----7--7-----7--7-----7--| 
G|--9b11--9-9b11--9-9b11--9-9b11--9-9b11--9--|  x4
D|-----------------------------------------------|
A|-----------------------------------------------|
E|-----------------------------------------------|

E|--7------7---7------7---7------7---7------7---7------| 
B|--10b12--10-10b12--10-10b12--10-10b12--10-10b12--|  x4
G|-----------------------------------------------------|
D|-----------------------------------------------------|
A|-----------------------------------------------------|
E|-----------------------------------------------------|

Back to the Intro.

ĂŽnscrie-te la newsletter


Join the ranks ! LIKE us on Facebook