Time Bomb Bass Tab - Turbonegro




Intro
E|--5-5-5-5-5-5-5-5----------10-8-|
A|------------------8-10-7-9------|
D|--------------------------------|
G|--------------------------------|

Verse
E|--5-5-5-5-5-5-5-5-----------------|
A|------------------8-8-8-8-8-8-8-8-|
D|----------------------------------|
G|----------------------------------|

Pre-chorus
E|--5-5-5-5-5-5-5-5------------|
A|------------------8-8-8-10-8-|
D|-----------------------------|
G|-----------------------------|

Break: Play E (You'll know when to start the chorus)

Chorus
B|--0-0-0-8-8-8-7-7-7-7-5-3-|
A|--------------------------|
D|--------------------------|
G|--------------------------|

Ending riff
E|--0-0-0-8-8-8-7-7-7-7-8-7-5-3-0~----------------------------|
A|------------------------------------------------------------|
D|------------------------------------------------------------|
G|------------------------------------------------------------|

Intro x4
Verse x8
Pre-Chorus x4
Intro x2
Verse x2
Pre-Chorus x8
Break
Chorus x19
Ending x1

ĂŽnscrie-te la newsletter


Join the ranks ! LIKE us on Facebook