Battle Metal Intro Tab - Turisas






                       Turisas- Battle Metal
                       Album- Battle Metal
                    Posted By Chris Povey (metallica-best@hotmail.co.uk)
                    any problems send me a quick e-mail

Play this bit 3 times
e|---------------------------------6----------------------------------------|
b|----------6----7----------7--------------/9-------------------------------|
g|--------------------5-----------------------------------------------------|
d|--------------------------------------------------------------------------|
a|--------------------------------------------------------------------------|
E|--0-----------------------------------------------------------------------|


Repeat This bit 3 times
e|---------------------------------10---------------------------------------|
b|----------10----11----------12--------------/14---------------------------|
g|--------------------9-----------------------------------------------------|
d|--------------------------------------------------------------------------|
a|--------------------------------------------------------------------------|
E|--0-----------------------------------------------------------------------|

Thats basically it couldn't tab whole song though.






Like us on Facebook