Ramund Hin Unge Intro Tab - TYR






 here you go ;)
E-------------------------------------------------------------------|
B-------------------------------------------------------------------|
G----------9-9--7--------------------------(hammer on)--------------|
D-----7-7----------9-10-9--10-7----7-9-10---(7-10-7)----------------|
A-------------------------------------------------------10-7--------|
E-------------------------------------------------------------------|

E-------------------------------------------------------------------|
B-------------------------------------------------------------------|
G----------9-9--7--------------------------(hammer on)--------------|
D-----7-7----------9-10-9--10-7----7-9-10---(7-10-7)----------------|
A-------------------------------------------------------10-7--------|
E-------------------------------------------------------------------|


E-----------------------------------------------------------------------|
B-----------------------------------------------------------------------|
G-----------------------------------------------------------------------|
D--------7--7-9-10---(7-10-7)-------------------------------------------|
A------7------------------------10-7------------------------------------|
E-----------------------------------------------------------------------|


E------------------------------------------------------------------------|
B------------------------------------------------------------------------|
G---------------------9-9---7--------------------------------------------|
D-----7-6-7---(10)-----------10-9-7-9-7----------------------------------|
A------------------------------------------------------------------------|
E------------------------------------------------------------------------|






Like us on Facebook