Ramund Hin Unge Intro ver2 Tab - TYR






E-----------------------------------------------------------------------|
B-----------------------------------------------------------------------|
G---------11-11-9-------------------------------------------------------|
D----9-9--------7--11/12--11--12--9---9h11--12---11h12p11---9--7--------|
A-------------------------9-------10---------9-----------------7--9-----|
E-----------------------------------------------------------------------|

E----------------------------------------------------|
B------------------------------------------------11--|
G----7/9--9--11--12--11h12p11--9-8----9-8-9--12------|
D--9-------------------------------9--9-7------------|
A-----------------------------------------10------9--|
E----------------------------------------------------|

E---------------------------|
B---------------------------|
G--11-11-9------------------|
D----------12-11-9-9/11--9--|
A------------------9/13-----|
E---------------------------|







Like us on Facebook