60 Seconds In Kingdom Come Tab - U2






-----------------------------------------------------------------------------
     60 Seconds In Kingdom Come  U2
-----------------------------------------------------------------------------
Tabbed by: olive14
Email: olive14@u2.com

Tuning: EbAbDbGbBbeb

2 chords !!!!
So hard !!!!!!!

1st one, only for the very start and 2 or 3 times somewhere else (with the e strings time to time)
e|(14-14-14)----------------------------------------------------------------|
B|-12-12-12-----------------------------------------------------------------|
G|-11-11-11-----------------------------------------------------------------|
D|-13-13-13-----------------------------------------------------------------|
A|--------------------------------------------------------------------------|
E|--------------------------------------------------------------------------|

2nd one with variations 
e|----------------------------(14)------------------------------------------|
B|-11-11-11-11-11-11-11-12-14-(14)------------------------------------------|
G|-11-11-11-11-11-11-11-11-11-----------------------------------------------|
D|-11-11-11-11-11-11-11-11-11-----------------------------------------------|
A|--------------------------------------------------------------------------|
E|--------------------------------------------------------------------------|

Thats all !!!
And I believe thats enough !!!

Sorry for my bad English

The best page to get Edges sound :
http://www.amnesta.net/edge_delay/  Good luck with it !!!

| /  slide up
|   slide down
| h  hammer-on
| p  pull-off
| ~  vibrato
| +  harmonic
| x  Mute note
=============================================================================






Like us on Facebook