Angel Of Harlem (ver2) Tab - U2






-------------------------------------------------------------------------------
     SONG NAME - Band Name
-------------------------------------------------------------------------------
Tabbed by: Nik Iafrancesco
Email:

Tuning: Standard or Eb

e|------------------------------------------------------------------------------|
B|------------------------------------------------------------------------------|
G|----5---10---0----------------------------------------------------------------|
D|----5---10---0----------------------------------------------------------------|
A|----3---8----0----------------------------------------------------------------|
E|------------------------------------------------------------------------------|
               ^as you're going back to the 355 chord, play the 3 strings open down once.
e|------------------------------------------------------------------------------|
B|------------------------------------------------------------------------------|
G|------------------------------------------------------------------------------|
D|---3-----5-----3--------------------------------------------------------------|
A|---3-----5-----3--------------------------------------------------------------|
E|---1-----3-----1--------------------------------------------------------------|
so long....
e|---------------------------------------------------------------------------|
B|---------------------------------------------------------------------------|
G|---------------------------------------------------------------------------|
D|--7----5----3--------------------------------------------------------------|
A|--7----5----3--------------------------------------------------------------|
E|--5----3----1--------------------------------------------------------------|
bridge kind of part

===============================================================================






Like us on Facebook