Beautiful Day (ver2) Bass Tab - U2






Intro 0.15
G|-----------------------------------------------------------------|
D|-----------------------------------------------------------------|  
A|-------------5-5-5-------------------5-5-5-5-5-5-----------------|  
E|-5-5-5-7-7-7-------3-3-3-3-3-3-3-3-3-------------5-5-5-5-5-5-5-5-| 

Chorus 0.57 to 01.11
G|-----------------------------------------------------------------|
D|-------------------5-5-5-5-5-5-5-5-------------------------------|  
A|-------------5-5-5-----------------5-5-5-5-5-5-------------------|  
E|-5-5-5-7-7-7-------------------------------------5-5-5-5-5-5-5-5-| 

Intro 0.12 to 01.39
Chorus 01.40 to 1.52

End chorus 1.53 to 02.07
G|-----------------------------------------------------------------|
D|-----------------------------------------------------------------|  
A|-9-9-9-9-9-9-9-10-10-10-10-10-10-10-10-5-5-5-5-5-5---------------|  
E|---------------------------------------------------5-5-5-5-5-5---| 

Intro 02.08 to 2.14

Interlude 02.09 to 02.43
G|-----------------------------------------------------------------|
D|-----------------------------------------------------------------|  
A|-7----------------5----------------------------------5-----------|  
E|-----------------------------------0--------3--------------------| 

G|-------------------------------|
D|-------------------------------|  
A|-------------------5-----------|  
E|-0--------3--------------------|

G|-------------------------------|
D|-------------------------------|  
A|-------------------5-----------|  
E|-0--------3--------------------|

G|-----------------------------------------------------------------|
D|-----------------------------------------------------------------|  
A|-------------------5-5-5-5-5-5-5-5-5/0-0-0-0-0-0-0-0-------------|  
E|-0--------3------------------------------------------------------|

Chorus 02.50 to 03.03
End chorus 03.04  to 03.17
Chorus 03.18 to end of song at 03.46

Hope this tab helps

Comments all welcome except nasty one :p
David oshea






Like us on Facebook