Beautiful Day Bass Tab - U2






U2-"Beautiful Day"
from the album "All that You Can't Leave Behind" 
Bass Tab by Dan @ Meatspace@hotmail.com (Join the BassTabArchive Tabbing Army!)



Main Riff:
G|-------------------|---------------|------------------------|
D|-7-7-7-9-9-9-12-12-|-125-5-5-5-5-5/12-12-12-12-12-12-------|  
A|-------------------|---------------|------------------12-12-|  
E|-------------------|---------------|------------------------|  
   1 + 2 + 3 +  4  +   1  2 + 3 + 4 +  1  +  2  +  3  +  4  +  

G|--------------------------|
D|-------------------------*| Repeat
A|-12-12-12-12-12-12-12-12-*|   14x
E|--------------------------|
    1  +  2  +  3  +  4  + 

2nd Riff:
G|-----------------|-----------------|-----------------|-----------------|
D|-----------------|-----------------|-----------------|-----------------| Repeat
A|-----------------|-----------------|-5-5-5-5-5-5-0-0-|-0-0-0-0-0-0-0-0-|   2x
E|-2-2-2-2-2-2-3-3-|-3-3-3-3-3-3-3-3-|-----------------|-----------------|

Main Riff 2x 

Bridge:
G|---------|----------|---------|----------|----------|--------|
D|---------|----------|---------|----------|*---------|--------|
A|-7-------|-(7)------|-5-------|-(5)------|*---------|--------|
E|---------|----------|---------|----------|--0-------|-3------|
   1 2 3 4    1 2 3 4   1 2 3 4    1 2 3 4   1 2 3 4   1 2 3 4

G|---------|----------|---------|---------|----------------|----------------|
D|---------|---------*|---------|---------|----------------|----------------|
A|-5-------|-(5)-----*|---------|---------|-5-5-5-5-5-5-5-5






Like us on Facebook