Crumbs From Your Table Tab - U2






Intro:
e-----------------------------------------|
B---12-----12------12---12-----12-----12--|
G------9------9------------9------9-------|
D--12---12------12---12------12-----12----|
A-----------------------------------------|
E-----------------------------------------|

e-----------------------------------------|
B---10-----10------10---10-----10-----10--|
G------9------9------------9------9-------|
D--12---12------12---11------11-----11----|
A-----------------------------------------|
E-----------------------------------------|

e--------------------------------------------|
B---12-----12--------------------------------|
G------9------9---------------------------11-|
D--12---12------12---12-12-12-11-11-11-9--12-|
A-----------------------------------------10-|
E-----------------------------------------10-|

e--------------------------------------------------------------|
B--------------------------------------------------------------|
G-7-9-9-9-9-9-7-repeat-9/119/119/11-7-7-9-9-9-9-9-7-6-6-7-9--|
D--------------------------------------------------------------|
A--------------------------------------------------------------|
E--------------------------------------------------------------|

the rest of the song is just a D A G chord rotation.. and some of the above here and there..






Like us on Facebook