Vertigo (ver3) Tab - U2






ARTIST: U2
TITLE: VERTIGO


MAIN RIFF:

e|--------------------------------------|
B|--------------------------------------|
G|---7/(9)-9-7-9-9-7-9------------------|
D|---7/(9)-9-7-9-9-7-9---7-7-7-7-6-5----|
A|---5/(7)-7-5-7-7-5-7---7-7-7-7-6-5----|
E|-----------------------5-5-5-5-4-3----| repeat


CHORUS:

e|--------------------------------------|
B|--------------------------------------|
G|---9--9--9--9-9---7-7-7-7-7-7-7-------|
D|---9--9--9--9-9---7-7-7-7-7-7-7-------|
A|---7--7--7--7-7---5-5-5-5-5-5-5-------|
E|--------------------------------------|


e|--------------------------------------|
B|--------------------------------------|
G|--------------------------------------|
D|---5--5--5--5-5---7-7-7-7-7-7-7-------|
A|---5--5--5--5-5---7-7-7-7-7-7-7-------|
E|---3--3--3--3-3---5-5-5-5-5-5-5-------| repeat


SOLO:

e|---12---------------------------------|
B|------12--15---12-15-12---------------|
G|--------------------------------------|
D|--------------------------------------|
A|--------------------------------------|
E|--------------------------------------| repeat


BREAK:

e|--------------------------------------|
B|--------------------------------------|
G|----------7-7-------------------------|
D|---5-5----7-7--7----------------------|
A|---5-5----5-5--7----------------------|
E|---3-3---------5----------------------| repeat

The break isn't perfect, but it sounds ok.






Like us on Facebook