Vertigo (ver5) Tab - U2






I think this is the correct version for this tab, but Im not completely positive so 
rate or comment me so I can see how I did.

Update-Changed The Notes to Harmonics that needed to be 4/8/07

x=dead note
/=slide up
=slide down
H=harmonics

Tuning: Standard

 Uno, Dos, tres, Cartorce, Cartorce

E|-x-------x-------x---x---|-x-------x-------x---x---|
B|-x-------x-------x---x---|-x-------x-------x---x---|
G|-x-------x-------x---x---|-x-------x-------x---x---|
D|-x-------x-------x---x---|-x-------x-------x---x---|
A|-x-------x-------x---x---|-x-------x-------x---x---|
E|-x-------x-------x---x---|-x-------x-------x---x---|x2


E|--------------------------------------|
B|--------------------------------------|
G|-7/-9-9-7/-9-9-7/-9-----------------|
D|-7/-9-9-7/-9-9-7/-9-7-7-7-7-7-7-6-5-|
A|-5/-7-7-5/-7-7-5/-7-7-7-7-7-7-7-6-5-|
E|----------------------5-5-5-5-5-5-4-3-|x4

  Lights    go down its dark, the jungle is your head
E|--------x-------------------------------------------x-|
B|--------x-------------------------------------------x-|
G|--------x-------------------------------------------x-|
D|--------x-------------------------------------------x-|
A|--------x-------------------------------------------x-|
E|--------x-------------------------------------------x-|

   Cant rule   your heart           Im feeling so much strong  er
E|------------x------------x---xx---------------------------x---|
B|------------x------------x---xx---------------------------x---|
G|------------x------------x---xx---------------------------x---|
D|------------x------------x---xx---------------------------x---|
A|------------x------------x---xx---------------------------x---|
E|------------x------------x---xx---------------------------x---|

  Than    I thought  your eyes are wide    And though your soul
E|-----x-----------x-------------------xx---------------------x-|
B|-----x-----------x-------------------xx---------------------x-|
G|-----x-----------x-------------------xx---------------------x-|
D|-----x-----------x-------------------xx---------------------x-|
A|-----x-----------x-------------------xx---------------------x-|
E|-----x-----------x-------------------xx---------------------x-|

  It cant  be bought  your mind can wander
E|--------x----------x------------------x-x-|
B|--------x----------x------------------x-x-|
G|--------x----------x------------------x-x-|
D|--------x----------x------------------x-x-|
A|--------x----------x------------------x-x-|
E|--------x----------x------------------x-x-|

Chorus
E|-------------------------------------------|
B|-------------------------------------------|
G|-9-9-9-9-7-7-7-7----------------------|
D|-9-9-9-9-7-7-7-7-5-5-5-5-7-7-7-7-|
A|-7-7-7-7-5-5-5-5-5-5-5-5-7-7-7-7-|
E|----------------------3-3-3-3-5-5-5-5-|x2


E|--------------------------------------|
B|--------------------------------------|
G|-7/-9-9-7/-9-9-7/-9-----------------|
D|-7/-9-9-7/-9-9-7/-9-7-7-7-7-7-7-6-5-|
A|-5/-7-7-5/-7-7-5/-7-7-7-7-7-7-7-6-5-|
E|----------------------5-5-5-5-5-5-4-3-|x2


 The night   is full of holes ,the bullets rip the sky
E|--------x-------------------------------------------x-|
B|--------x-------------------------------------------x-|
G|--------x-------------------------------------------x-|
D|--------x-------------------------------------------x-|
A|--------x-------------------------------------------x-|
E|--------x-------------------------------------------x-|

        Of ink   with gold          They twinkle as the boys
E|------------x------------x---xx---------------------------x---|
B|------------x------------x---xx---------------------------x---|
G|------------x------------x---xx---------------------------x---|
D|------------x------------x---xx---------------------------x---|
A|------------x------------x---xx---------------------------x---|
E|------------x------------x---xx---------------------------x---|

  They rock and roll          They know that they cant dacne
E|-----x-----------x-------------------xx---------------------x-|
B|-----x-----------x-------------------xx---------------------x-|
G|-----x-----------x-------------------xx---------------------x-|
D|-----x-----------x-------------------xx---------------------x-|
A|-----x-----------x-------------------xx---------------------x-|
E|-----x-----------x-------------------xx---------------------x-|

  At least  they know
E|--------x----------x-|
B|--------x----------x-|
G|--------x----------x-|
D|--------x----------x-|
A|--------x----------x-|
E|--------x----------x-|


E|-----12H----10----10--------12H----10----10-----------------|
B|--------12H-----10-----10-------12H-----10-----10-----------|
G|------------------------------------------------------------|
D|------------------------------------------------------------|
A|------------------------------------------------------------|
E|------------------------------------------------------------|x3

Chorus
E|-------------------------------------------|
B|-------------------------------------------|
G|-9-9-9-9-7-7-7-7----------------------|
D|-9-9-9-9-7-7-7-7-5-5-5-5-7-7-7-7-|
A|-7-7-7-7-5-5-5-5-5-5-5-5-7-7-7-7-|
E|----------------------3-3-3-3-5-5-5-5-|x2

E|--------------------------------------|
B|--------------------------------------|
G|-7/-9-9-7/-9-9-7/-9-----------------|
D|-7/-9-9-7/-9-9-7/-9-7-7-7-7-7-7-6-5-|
A|-5/-7-7-5/-7-7-5/-7-7-7-7-7-7-7-6-5-|
E|----------------------5-5-5-5-5-5-4-3-|x2


E|--------------------|
B|--------------------|
G|-5----9----7--------|
D|-5----9----7--------|
A|-3----7----5--------|
E|-3----7----5--------|x4

E|---------------------------------------|
B|-10-10-10-9-9-9----------------------|
G|-9-9-9-9-9-9-9-9--9-10-10-10-|
D|-------------------8-8-8-10-10-10-|
A|---------------------------------------|
E|---------------------------------------|

go back to Chorus
And thats about it I couldnt tab the part all of this, all of this can be yours so 
can add-on but thats about all I really know enjoy please rate.






Like us on Facebook