Vertigo Bass Tab - U2






INTRO

G-------------------------------|
D-------------------------------|
A--5-77-5-7-5-7-----------------|
E---------------0--5555433------|


VERSE
G-------------------------------|
D-------------------------------|
A--5-77-5-7-5-7-----------------|
E---------------0--5555433------|

CHORUS

G-------------------------------|
D-------------------------------|
A--7(x8)-5(x8)------------------|
E---------------3(x8)--5(x8)----|


BRIDGE 1

G--------|
D--------|
A--------|
E----5---|  play speed


SOLO

G-------------------------------|
D-------------------------------|
A--5-77-5-7-5-7-----------------|
E---------------0--5555433------|


BRIDGE 2

G-------------------|
D-------------------|
A--5-7--5-77-57-----|
E-------------------|






Like us on Facebook