Vertigo Tab - U2






My first tab ever, so go easy on me.  Standard tuning, use distortion...  I don't have
the whole song tabbed, just the end is left out but you can figure it out from what I
give you.

Intro
e---------------------------------------------------|
B---------------------------------------------------|
G-----7/9-9----7/9-9---7/9--------------------------|
D-----7/9-9----7/9-9---7/9----7--7--7--7---6--5-----|
A-----5/7-7----5/7-7---5/7----7--7--7--7---6--5-----|
E-----------------------------5--5--5--5---4--3-----|

Verse - "Lights go down, it's dark..."
e---x----------------------------------------------|
B---x----------------------------------------------|
G---x----------------------------------------------|
D---x----------------------------------------------|
A---x----------------------------------------------|
E---x----------------------------------------------|
Just palm mute, classic edge.

Chorus - "Hello, hello"
e---------------------------------------------------|
B---------------------------------------------------|
G---9-----7-----------------------------------------|
D---9-----7-----5-----7-----------------------------|
A---7-----5-----5-----7-----------------------------|
E----------------3-----5----------------------------| Listen for rythym.

Then repeat the intro.
e---------------------------------------------------|
B---------------------------------------------------|
G-----7/9-9----7/9-9---7/9--------------------------|
D-----7/9-9----7/9-9---7/9----7--7--7--7---6--5-----|
A-----5/7-7----5/7-7---5/7----7--7--7--7---6--5-----|
E-----------------------------5--5--5--5---4--3-----|

Second Verse
e---x----------------------------------------------|
B---x----------------------------------------------|
G---x----------------------------------------------|
D---x----------------------------------------------|
A---x----------------------------------------------|
E---x----------------------------------------------|

Then, the part with classic edge delay, when bono sings
"They know that they can't dance, at least they know..."

e-----12----10----10--------12----10----10-----------------|
B--------10-----10-----10-------10-----10-----10-----------|
G----------------------------------------------------------|
D----------------------------------------------------------|
A----------------------------------------------------------|
E----------------------------------------------------------|

Solo
e----19---17---19---19---14--------------------------------|
B----19---17---19---19---17--------------------------------|
G----19---17---19---19---17--------------------------------|
D----------------------------------------------------------|
A----------------------------------------------------------|
E----------------------------------------------------------|

Then, repeat chorus and intro!






Like us on Facebook