Where The Streets Have No Name (ver2) Bass Tab - U2






-U2- Where the Streets Have No Name

Normal Tuning (EADG)
Timing-125ish

this is just a correction of someones tab.
the intro comes in at different times on different albums (0:09& 0:39)

intro:
G--------------------------------------------------------------------
D--------------------------------------------------------------------
A-12/5-5-5-5-5-5-5-5-5-5-5-5-5-5-5-0-5-5-5-5-5-5-5-5-5-5-5-5-5-5-5-5-
E--------------------------------------------------------------------
  1 & 2 & 3 & 4 & 1 & 2 & 3 & 4 & (ect.)

G--------------------------------------------------------------------------
D--------------------------------------------------------------------------
A-/10-10-10-10-10-10-10-10-10-10-10-10-10-10-10-10/5-5-5-5-5-5-5-5-5-5-5-5-
E--------------------------------------------------------------------------

G---------------------------------------------------------------------------
D---------------------------------------------------------------------------
A-5-5-5-5/10-10-10-10-10-10-10-10-10-10-10-10-10-10-10-10/14-14-14-14-14-14-
E---------------------------------------------------------------------------

G-------------------------------------------------------------------------
D-------------------------------------------------------------------------
A-14-14-14-14-14-14-14-14-14-14-12-12-12-12-12-12-12-12-12-12-12-12-12-12-
E-------------------------------------------------------------------------

G---------------------------------------------------------------------------
D---------------------------------------------------------------------------
A-12-12/3-3-3-3-3-3-3-3-3-3-3-3-3-3-3-3/15-15-15-15-15-15-15-15-15-15-15-15-
E---------------------------------------------------------------------------

G-------------------------------------------------------------
D-------------------------------------------------------------
A-15-15-15-15-15-15-15-15-15-15-15-15-15-15-15-15-15-15-15-15-
E-------------------------------------------------------------

1st part:
G---------------------------------------------------------------------------
D---------------------------------------------------------------------------
A-5-5-5-5-5-5-5-5-5-5-5-5-5-5-5-0-5-5-5-5-5-5-5-5-5-5-5-5-5-5-5-5-/10-10-10-
E---------------------------------------------------------------------------

G-------------------------------------------------------------------------
D-------------------------------------------------------------------------
A-10-10-10-10-10-10-10-10-10-10-10-10-10/14-14-14-14-14-14-14-14-14-14-14-
E-------------------------------------------------------------------------

G----------------------------------------------------------------
D----------------------------------------------------------------
A-14-14-14-14-14-12-12-12-12-12-12-12-12-12-12-12-12-12-12-12-12-
E----------------------------------------------------------------

G----------------------------------/----------------------------------------
D----------------------------------/.---------------------------------------
A-/3-3-3-3-3-3-3-3-3-3-3-3-3-3-3-3-/.15-15-15-15-15-15-15-15-15-15-15-15-15-
E----------------------------------/----------------------------------------

G-----------           
D----------.
A-15-15-15-.
E-----------

2nd part-same as 1st part

3rd part
G---------------------------------------------------------------------------
D---------------------------------------------------------------------------
A-5-5-5-5-5-5-5-5-5-5-5-5-5-5-5-5-------------------------------------------
E---------------------------------3-3-3-3-3-3-3-3-3-3-3-3-3-3-3-3/7-7-7-7-7-

G---------------------------------------------------------------------------
D---------------------------------------------------------------------------
A-------------------------------------------------------3-3-3-3-3-3-3-3-3-3-
E-7-7-7-7-7-7-7-7-7-7-7/5-5-5-5-5-5-5-5-5-5-5-5-5-5-5-5---------------------

G-------------/-------------------------------------------------------
D-------------/...-------------------------------------------------...
A-3-3-3-3-3-3-/...-15-15-15-15-15-15-15-15-15-15-15-15-15-15-15-15-...
E-------------/-------------------------------------------------------

G---------------------------------------------------------------------------
D---------------------------------------------------------------------------
A-5-5-5-5-5-5-5-5-5-5-5-5-5-5-5-0-5-5-5-5-5-5-5-5-5-5-5-5-5-5-5-5-----------
E-----------------------------------------------------------------3-3-3-3-3-

G---------------------------------------------------------------------------
D---------------------------------------------------------------------------
A---------------------------------------------------------------------------
E-3-3-3-3-3-3-3-3-3-3-3/7-7-7-7-7-7-7-7-7-7-7-7-7-7-7-7/5-5-5-5-5-5-5-5-5-5-

G---------------------------------------------/----------------------------
D---------------------------------------------/..--------------------------
A-------------3-3-3-3-3-3-3-3-3-3-3-3-3-3-3-3-/..-15-15-15-15-15-15-15-15--
E-5-5-5-5-5-5---------------------------------/----------------------------

G---------------------------
D-------------------------..
A-15-15-15-15-15-15-15-15-..
E---------------------------

4th part:x2
G-------------------------------------------------------------------------
D-------------------------------------------------------------------------
A-/5-5-5-5-5-5-5-5-5-5-5-5-5-5-5-5/10-10-10-10-10-10-10-10-10-10-10-10-10-
E-------------------------------------------------------------------------

G-------------------------------------------------------------------------
D-------------------------------------------------------------------------
A-10-10-10/14-14-14-14-14-14-14-14-14-14-14-14-14-14-12-12-12-12-12-12-12-
E-------------------------------------------------------------------------

G------------------------------------------------------------
D------------------------------------------------------------
A-12-12-12-12-12-12-12-12-12/5-5-5-5-5-5-5-5-5-5-5-5-5-5-5-5-
E------------------------------------------------------------

the first time play this, then repeat the stuff above
G------------------------------------------------------------------------
D------------------------------------------------------------------------
A-----------------------------5-5-5-5-5-5-5-5-5-5-5-5-5-5----------------
E-3-3-3-3-3-3-3-3-3-3-3-3-3-3------------------------------3-3-3-3-3-3-3-

G---------------
D---------------
A-3-3-3-3-3-3-3-
E---------------

the second time, play this
G---------------------------------------------------------------------
D---------------------------------------------------------------------
A------------------------------------------------------------------3~-
E-/7-7-7-7-7-7-7-7-7-7-7-7-7-7-7-7/5-5-5-5-5-5-5-5-5-5-5-5-5-5-5-5----






Like us on Facebook