Wire Bass Tab - U2






Title: Wire
Artist: U2
Album: The Unforgettable Fire

Instrument: 4 String Bass

Tabbed by:  ()

Tuning: Standard (E A D G)



Intro, After Guitar
G|----------------|---------------|----------------------|----------|
D|----------------|--------5-5-5-5|----------------------|5-5-5-5---|
A|----------------|---------------|7-7-7--7-7-7--7-7-7-7-|----------|
E|0-0-0-0-0-0-0-0-|0-0-0-0--------|------5------5-------0|----------|

G|-----------------------------||
D|-----------------------------||
A|7-7-7---7-7-7---7-7-7--------||
E|------5-------5-------0---||

Verse

G|----------------|------------------|----------------|----------------|
D|----------------|-----5-5-5-5-5----|----------------|------5-5-5-5---|
A|----------------|------------------|----------------|--------------7-|
E|0-0-0-0-0-0-0-0-|0-0-0-------------|0-0-0-0-0-0-0-0-|0-0-0-----------|

G|-------------------------------|-------------------7---9--|
D|-------------------------------|--------------------------|
A|7-7-7---7-7-7---7-7-7----------|-7-7-7---7-7-7---5---7----|
E|------5-------5-------0-----|-------5-------5----------|

G|------------------------------|-------------------7------|
D|------------------------------|---------------------5-5--|
A|7-7-7---7-7-7---7-7-7---------|-7-7-7---7-7-7---5--------|
E|------5-------5-------0--5-|-------5-------5----------|

G|-------------------------------|-------------------7---9--|
D|-------------------------------|--------------------------|
A|7-7-7---7-7-7---7-7-7----------|-7-7-7---7-7-7---5---7----|
E|------5-------5-------0-----|-------5-------5----------|

Chorus

G|------6----------------7-------||
D|-------------------------------|| x 2
A|4-4-4---4-4-4-4/-5-5-5--5-5-5-5||
E|-------------------------------||

G|----------------|-------------------|-------------------------------|
D|----------------|-------------------|-------------------------------|
A|7-7-7-7-7-7-7-7-|-------------14-|7-7-7---7-7-7---7-7-7----------|
E|----------------|-------------------|------5-------5-------0---5-|

G|-------------------------------|
D|-------------------------------|
A|7-7-7---7-7-7---7-7-7----------| x 3
E|------5-------5-------0---5-|

Verse 2

G|----------------|---------------|
D|----------------|--------5-5-5-5|
A|7-7-7-7-7-7-7-7-|7-7-7-7--------|
E|----------------|---------------|

G|----------------|---------------|
D|----------------|--------5-5-5-5|
A|7-7-7-7-7-7-7-7-|7-7-7-7--------|
E|----------------|---------------|

G|----------------|---------------|----------------|---------|
D|----------------|--------5-5-5-5|----------------|---------|
A|7-7-7-7-7-7-7-7-|7-7-7-7--------|7-7-7-7-7-7-7-7-|-7----|
E|----------------|---------------|----------------|---------|

Interlude

G|----------------|-------------------|
D|------7------7--|------5-5-4-4-4----| x2
A|7-7-7--7-7-7----|7-7-7--------------|
E|----------------|-------------------|

Verse 3

G|----------------|----------------|
D|----------------|--------5-5-5-5-| x2
A|7-7-7--7-7-7----|7-7-7-----------|
E|------5------5--|------0---------|

G|-------------------7---9--|
D|--------------------------|
A|-7-7-7---7-7-7---5---7----|
E|-------5-------5----------|

G|-------------------7------|
D|---------------------5-5--|
A|-7-7-7---7-7-7---5--------|
E|-------5-------5----------|

G|----------------|----------------|
D|----------------|-------------| x2
A|7-7-7--7-7-7----|7-7-7-----------|
E|------5------5--|------0---------|

G|-------------------7---9--|
D|--------------------------|
A|-7-7-7---7-7-7---5---7----|
E|-------5-------5----------|

G|-------------------7------|
D|---------------------5-5--|
A|-7-7-7---7-7-7---5--------|
E|-------5-------5----------|

G|------6----------------7----7--||
D|-------------------------------|| x 2
A|4-4-4---4-4-4-4/-5-5-5--5-5---5||
E|-------------------------------||

G|----------------|-----------------|-----------------------|------------|
D|----------------|------5-5-5-5-5--|-----------------------|------------|
A|7-7-7-7-7-7-7-7-|7-7-7------------|-7-7-7-7-7-7-7-7-------|-7-7-7---|
E|----------------|-----------------|-----------------------|------------|

Bridge

G|----------------||
D|-5-5-5-5-5-5-5-5|| x4
A|----------------||
E|----------------||

G|----------------|---------------|----------------|----------------|
D|5-5-5--------5--|---------------|5-5-5---------5-|----------------|
A|-----7-7-7-7----|7-7-7-------7-7|------7-7-7-7---|7-7-7-------7-7-|
E|----------------|------7-7-7----|----------------|------8-8-8-----|

G|-------------------------------||
D|5-5-5-5-5-5-5-5----------------|| x2
A|----------------3-3-3-3-3-3-3-3||
E|-------------------------------||

Out Chorus

G|----------------|----------------|
D|------7-------7-|------5-5-5-5-5-| x2
A|7-7-7---7-7-7---|7-7-7-----------|
E|----------------|----------------|

G|----------------|------------------|-----------|
D|----------------|--------5-5-5-5---|-----------|
A|7-7-7-7-7-7-7-7-|7-7-7-7-----------|----7~-----|
E|----------------|------------------|-----------|






Like us on Facebook