Yahweh Tab - U2






Here's the song...(Basic riffs, don't have time to get every note down, but you can 
it out yourself, listen to the cd to help you..not too tough).
Let me know what you think (apollo269@yahoo.com)

Standard Tuning

Intro (Larry counts in 1,2,3,4) and guitar comes in:
--------------------|
--------------------|
--------------------|
-------0------------|
--------------------|
--------------------|
1 te 2 te 3 te 4 te

Verse: (listen to cd...delay)

--0--0--0--0--|--0----0----|
--1--1-/3--5--|--6----5----|
--0-----------|------------|
--2-----------|------------|
--3-----------|------------|
--------------|------------|
  1  2  3  4     1    3

Chorus:(Play with slight variations each time)..like so: (check with cd) i didn't have 
with me..so i'm not sure..its close though:
|---8-----|---------||---8-----|---------|---8-----|-----------------|
|-----8---|-10--8---||-----8---|--10--8--|-----8---|-10--8-10-8-10-8-|
|-9-----9-|-------9-||-9-----9-|---------|-9-----9-|-----------------|
|---------|---------||---------|---------|---------|-----------------|
|---------|---------||---------|---------|---------|-----------------|


Verse 2 (same verse riff)


"still waiting for the dawn...
|-*12*---------|---------|---------|---------|
|----------*12*|-(12)----|---------|---------|
|--------------|---------|-*12*----|-(12)----|
|--------------|---------|---------|---------|
|--------------|---------|---------|---------|
|--------------|---------|---------|---------|


|-*12*---------|-----------|---------|---------|
|----------*12*|-(12)------|---------|---------|
|--------------|----*12*---|---------|---------|
|--------------|-----------|--*12*---|---------|
|--------------|-----------|---------|--*12*---|
|--------------|-----------|---------|---------|


"sun is coming...." (I don't have that part, because i didn't have the cd with me..sorry)

"Love is like a drop in the ocean"
|-12-13-12-13-12-13-12-13-|12-13-12-13-12-13-12----|
|-------------------------|------------------------|
|-------------------------|------------------------|
|-------------------------|------------------------|
|-------------------------|------------------------|
|-------------------------|------------------------|


Back to Chorus


then the ending like at about 4 minutes: (play 3 times)
|----8------8------8-|--8-----8-----8-|
|------8------8------|----8-----8-----|
|-10-----10-----10---|9-----9-----9---|
|--------------------|----------------|
|--------------------|----------------|
|--------------------|----------------|


then end

|-(8)---||
|-(8)---||
|-(9)---||
|-------||
|-------||
|-------||






Like us on Facebook