Zoo Station (ver3) Tab - U2






Artist: U2
Album: Achtung Baby
Song: Zoo Station
Track: 1


|--------------------------------------------------------------------------|
|                     - U2 - ZOO STATION - ACHTUNG BABY -                  |
|--------------------------------------------------------------------------|

Bass goes something like this:

VERSE
|-------------------------------------------------|
|--------------------------------------------2--2-|
|---0--0------0--0---0--0---0--0---0--0---0-------|
|----------2-------2------2------2------2---------|

CHORUS
|------------10----------10--------5-----------------------------------------|
|-------8------------8--------3----------------------------------------------|
|----7--------------------2--------------------------------------------------|
|----------------------------------------------------------------------------|
-----------------------------------------------------------------------------|
                                |--------------------------------------------|
                                |  INTRO:  |
                                |----------|
NOTES: Use heavy distortion on guitar parts, and use quiet backgound of muted notes. 
in parentheses mean quiet notes. / is slide down string,  is slide up string.

GTR I                                                           repeat x 2
e|-----------------------------------------------------------------------|
B|-----------------------------------------------------------------------|
G|-----------------------------------------------------------------------|
D|-----------------------------------------------------------------------|
A|-----12/(0)------------12/(0)--------------12/(0)-----------12/(0)-----|
E|--------35/---------------35/----------------35/-------------35/---|

GTR II                                                               repeat
e|-----------------------------------------------------------------------|
B|-----------------------------------------------------------------------|
G|-----------------------------------------------------------------------|
D|--x-x-x-x-x-x-x-x-x-x-x-x-x-x-x-x-x-x-x-x-x-x-x-x-x-x-x-x-x-x-x-x-x-x--|
A|--x-x-x-x-x-x-x-x-x-x-x-x-x-x-x-x-x-x-x-x-x-x-x-x-x-x-x-x-x-x-x-x-x-x--|
E|--x-x-x-x-x-x-x-x-x-x-x-x-x-x-x-x-x-x-x-x-x-x-x-x-x-x-x-x-x-x-x-x-x-x--|


VERSE I

     I'm ready....                                I'm ready.....
e|----------------------------------------------------------------------|
B|----------------------------------------------------------------------|
G|------0--0--0---0---0--0---0--0--0-0---0--0---0-----0--0---0--0--0--0-|
D|------0--0--0---0---0--0---0--0--0-0---0--0---0-----0--0---0--0--0--0-|
A|------1--1--1---1---1--1---1--1--1-1---1--1---1-----1--1---1--1--1--1-|
E|----------------------------------------------------------------------|

CHORUS
                                 Zoo station....        Zoo station....
e|-------------10----------10------5--------10------10--------5---------|
B|---------8-----------8--------3--------8-------8---------3------------|
G|-----7---------------------2--------7-----------------2---------------|
D|----------------------------------------------------------------------|
A|----------------------------------------------------------------------|
E|----------------------------------------------------------------------|






Like us on Facebook