Zoo Station (ver4) Tab - U2






This is the live version use distortion
intro
e--------------------------------------------------------------------|
B--------------------------------------------------------------------|
G--------------------------------------------------------------------|
D--------------------------------------------------------------------|
A--------------------------------------------------------------------|
E-17---3-5----------------------------------------------------------|

e--------------------------------------------------------------------|
B--------------------------------------------------------------------|
G--------------------------------------------------------------------|
D--------------------------------------------------------------------|
A--------------------------------------------------------------------|
E-17-3-5--5-5--5----5-5---------------------------------------------|

e--------------12---------12-------------------------12----------12----------|
B-----10-----------10----------10-----------10-----------10----------10------|
G---------9--------------------------------------9---------------------------|
D-12-------------------12----------12---11--------------------11-------------|
A----------------------------------------------------------------------------|
E----------------------------------------------------------------------------|
verse
e----------------------------------------------------------------------|
B----------------------------------------------------------------------|
G----------------------------------------------------------------------|
D----------------------------------------------------------------------|
A----------------------------------------------------------------------|
E-17-3-5--5-5---5---5-5-----------------------------------------------|

chours
e--------------12-----------12-----------------------12---------12-----------|
B------10-------------------------------------10---------10----------10------|
G----------9--------9------------9----------------9--------------------------|
D--12-------------------12-----------12--11------------------11--------------|
A----------------------------------------------------------------------------|
E----------------------------------------------------------------------------|
after the part of alright
e---17-17-17--17-17--15-15-15----------------------------------------------|
B---17-17-17--17-17--15-15-15----------------------------------------------|
G---------------------------------------------------------------------------|
D---------------------------------------------------------------------------|
A---------------------------------------------------------------------------|
E---------------------------------------------------------------------------|






Like us on Facebook