My Will Be Done Intro Tab - Unearth






Guitar 1:x2
|------------10-14p10----------10-14-t15p14p10----|
|---------12----------12----12-----------------12-|
|------11----------------11-----------------------|
|-9-12--------------------------------------------|
|------------------------x2-----------------------|
|-------------------------------------------------|

|----------7-10p7-------7-10-t11p10p7---|
|--------8--------8---8---------------8-|
|------7------------7-------------------|
|----9----------------------------------|
|-10---------------x2-------------------|
|---------------------------------------|

Both Guitars: x2
Guitar 1:
|------------10-14p10----------10-14-t15p14p10----|
|---------12----------12----12-----------------12-|
|------11----------------11-----------------------|
|-9-12--------------------------------------------|
|------------------------x2-----------------------|
|-------------------------------------------------|
Guitar 2:
|-------------14-17p14----------14-17-t19p17p14----|
|----------15----------15----15-----------------15-|
|-------14----------------14-----------------------|
|----16--------------------------------------------|
|-17----------------------x2-----------------------|
|--------------------------------------------------|

Guitar 1:
|----------7-10p7-------7-10-t11p10p7---|
|--------8--------8---8---------------8-|
|------7------------7-------------------|
|----9----------------------------------|
|-10---------------x2-------------------|
|---------------------------------------|
Guitar 2:
|------------10-14p10----------10-14-t15p14p10----|
|---------12----------12----12-----------------12-|
|------11----------------11-----------------------|
|-9-12--------------------------------------------|
|------------------------x2-----------------------|
|-------------------------------------------------|






Like us on Facebook