The Great Dividers Intro Tab - Unearth






Tabbed by-justbreathing10
Email-dand10468@yahoo.com

Band-Unearth
Song-The Great Dividers
Album-The Oncoming Storm

Tuning- B F# B E G# C#

This is only the intro.You can continue my tab if you want.

Intro/Verse
|---------|-----------------------------------------------|
|---------|-----------------------------------------------|
|---------|-----------------------------------------------|
|-0~--x\-|----6-----------6------------------------------|
|-0~--x\-|--5--5-6-3-5--5--5-6-3-8--8-8-7-8-5------3-8-7-|
|-0~--x\-|-0-0---------0-0---------0-0-----8--0-3-0-0---8|
PM          . .         . .         . .        .   . .

Intro/Verse (Con't)
|----------------------------------------------------|
|----------------------------------------------------|
|----------------------------------------------------|
|----6-----------6-----------------------------------|
|--5--5-6-3-5--5--5-6-3-8--8-8-7-8-7-5------1----6-5-|
|-0-0---------0-0---------0-0----------0-1-4--0-0----|
PM. .         . .         . .          .      . . 


| /  slide up
|   slide down
| h  hammer-on
| p  pull-off
| ~  vibrato
| +  harmonic
| x  Mute note






Like us on Facebook