This Glorious Nightmare Intro Tab - Unearth






E--------------------------------------------------|
B--------------------------------------------------|
G--------------------------------------------------|
D--------------------------------------------------|
A-9-0--0000-0-0-0-0--9-7-10-9--0000-0-0-0-0-9-7-11-|
E-7-0--0000-0-0-0-0--7-5--8-7--0000-0-0-0-0-7-5--9-|

E-----------------------------------------------------|
B-----------------------------------------------------|
G-----------------------------------------------------|
D-----------------------------------------------------|
A-10--0000-0-0-0-0-9-7-10--109-7-9-7--7-7-7-5--5-5-5-|
E--8--0000-0-0-0-0-7-5--8---87-5-7-5--5-5-5-3--3-3-3-|






Like us on Facebook