This Lying World Intro Tab - Unearth






Band: Unearth
Title: This Lying World
Album: The Oncoming Storm
Track Number: 3


Comments and ratings are appreciated!

I know they play seven string, but I don't have one. So I tabbed for the song in Drop B.

C#|----------------------------------------------------------------|
G#|----------------------------------------------------------------|
 E|----------------------------------------------------------------|
 B|-------------------5b6-5b6----5b6-5b6----5b6-5b6----5b6-5b6-----|
F#|----------------------------------------------------------------|
 B|----------------------------------------------------------------|

C#|----------------------------------------------------------------|
G#|----------------------------------------------------------------|
 E|----------------------------------------------------------------|
 B|-------------------5b6-5b6-----------5b6-5b6-5b6-5b6------------|
F#|-0--00--00----------------0--00--00-----------------------------|
 B|-0--00--00----------------0--00--00-----------------------------|

C#|----------------------------------------------------------------|
G#|----------------------------------------------------------------|
 E|----------------------------------------------------------------|
 B|----------------------5b6-5b6-------------5b6-5b6-5b6-5b6-------|
F#|-0--00--00-0--00--00-----------0--00--00------------------------|
 B|-0--00--00-0--00--00-----------0--00--00------------------------|

And so on... I'll try to get the rest, but it's hard to hear the guitar :/

Suggestions? Just leave a comment or email me at shifty15@gmail.com






Like us on Facebook