Exit Strategy Intro Tab - Valient Thorr






-------------------------------------------------------------------------|
-------------------------------------------------------------------------|
-------------------------------------------------------------------------|
-----------5h-7---------5h-7------9--------5h-7--------------------------|
-------5h-7----6----5h-7----6-----7----5h-7------7-8-9-------------------|
----------------------------------0--------------5-6-7--0--000--000--000-|

4str.--------------------2----------------------------------------------|
5str.-------7s9--5s7--8--2----------------------------------------------|
6str.--000--5s7--3s5--6--0----------------------------------------------|

                         sorry dont know any more

ĂŽnscrie-te la newsletter


Like us on Facebook