Doa Tab - Van Halen






Artist: Van Halen
Title: Dead or Alive (D.O.A.)
Album: Van Halen II

Transcribed by: Eric Hutchison/ogrremon@yahoo.com

Standard Tuning: Eb Ab Db Gb Bb eb

Key of A Major

I love playing this song! ENJOY!

     A5

      bar -1.5 (slowly let bar up--------------------------------------------

eb:--0--(0)-----------------------------------------------------------------|
Bb:--2--(2)-----------------------------------------------------------------|
Gb:--2--(2)-----------------------------------------------------------------|
Db:--2--(2)-----------------------------------------------------------------|
Ab:--0--(0)-----------------------------------------------------------------|
Eb:--------------------------------------------------------------------------|

     ----------------------------FEEDBACK------------------------------------)
                                     w/bar

eb:--0---------------------------------/-----/---/---/--/------/-------|
Bb:--2---------------------------------/-----/---/---/--/-----//-------|
Gb:--2---------------------------------/-----/---/---/--/----///-------|
Db:--2---------------------------------/-----/---/---/--/---////-------|
Ab:--0---------------------------------/-----/---/---/--/--/////-------|
Eb:--------------------------------------------------------------------------|


4 count pick slide


eb:----------------------------------|
Bb:----------------------------------|
Gb:--(15)x\------------------------|
Db:--(15)x\\----------------------|
Ab:--(15)x\\\--------------------|
Eb:---------(8)x\------------------|

     A5  F#5


eb:--------------------------------------------------------------------------|
Bb:--2---------------2---------------2---------------2----//(17)x\---------|
Gb:--2---------------2---------------2---------------2----//(17)x\\-------|
Db:--2---------------2---------------2---------------2----//(17)x\\\-----|
Ab:--0---4444----0---4444----0---4444----0----------------------|
Eb:------22222