I Didnt Kill Her Tab - VEHEMENCE






---------------------------------------------------------------------------|
---------------------------------------5-----------------------------------|
-----------------------------------7-------7-------------------------------|
------0---7---10--10-10-10---------------------0---7---10------------------|
00-0--0---7--8----8--8--8-------0------------------7---8-------------------|
00-0------7-8-----8--8--8-----0------0-------------7---8-------------------|


------------------------------------------------------------------------|
---------------h3-3-----------------------------------------------------|
------------------------------------------------------------------------|
---0-h3--h5--h7-------7-p5-p3----7---8p7-8-7--7h8----7------------------|
------------------------------5~------------------10---10-8-10-8--------|
-0---------------------------------8------------------------------------|

-------------------------------------------------------------------------|
-------------------------------------------------------------------------|
-------------------------------------------------------------------------|
--5-7-5--3-5~~-----------------------------------------------------------|
-------------------------------------------------------------------------|

ĂŽnscrie-te la newsletter


Like us on Facebook