Last Fantasy Of Christ Intro Tab - VEHEMENCE






Artist:        Vehemence
 Album:        God Was Created
  Song:        Last Fantasy of Christ

No tuning, just intro. 


|-----------------------------------------|
|-----------------------------------------|
|-----8-8-5-3-5-6-5---5-3-1-0-3-1-0-------|
|-3/6--------------------------------3----|
|-----------------------------------------|
|-----------------------------------------|

Artist:        Vehemence
 Album:        Helping The World To See
  Song:        Alone In Your Presence


|---------------------------------0---3-0---------|
|-------------------------------0---0-----0-------|
|-5-4--5-4-0-2--5-4-5-4-0-2---4-------------------|
|-------------------------------------------------|
|-------------------------------------------------|
|-------------------------------------------------|

ĂŽnscrie-te la newsletter


Like us on Facebook