Spirit Of The Soldier Intro (ver2) Tab - VEHEMENCE






----------------------------------------------------------------------------
     Spirit of the Soldier - Vehemence
----------------------------------------------------------------------------Tabbed by:Nackel

| /  slide up
|   slide down
| h  hammer-on
| p  pull-off
| ~  vibrato
| +  harmonic
| x  palm mute

Tuning: D standard.

e|--------------------------------------------------------------------------|
B|--------------------------------------------------------------------------|
G|--------------------------------------------------------------------------|
D|4--4-4--9/11-9-7-9-7-6---------------0--0-0----------2--2-2---------------|
A|4--4-4--9/11-9-7-9-7-6--4-5-4-2------0--0-0----------2--2-2---------------|
D|4--4-4--9/11-9-7-9-7-6----------7-6--0--0-0--/11~-9--2--2-2---11-12-11-9--|

e|--------------------------------------------------------------------------|
B|--------------------------------------------------------------------------|
G|--------------------------------------------------------------------------|
D|--------------------------------------------2-----------0--0-0------------|
A|-------------------999-777-555-777-555-444----5-4-2-----0--0-0------------|
D|-11-12-11~--11-11-----------------------------------7-6-0--0-0--/11~-9----|
                     xxx xxx xxx xxx xxx xxx
e|--------------------------------------------------------------------------|
B|--------------------------------------------------------------------------|
G|--------------------------------------------------------------------------|
D|2--2-2--------------------------------------------------------------------|
A|2--2-2--------------------------------------------------------------------|
E|2--2-2---11-12-11-9-11-9--------------------------------------------------|

Play the whole thing twice. This is 100% correct, all others are incorrect.
============================================================================

ĂŽnscrie-te la newsletter


Like us on Facebook