Spirit Of The Soldier Intro Tab - VEHEMENCE






-----------------------------------------------------------------------------
     Spirit of the Soldier - Vehemence
-----------------------------------------------------------------------------
Tabbed by:Angel Ibaez
Email:eyeless69@hotmail.com

 . = palm mute
B|--------------------------------------------------------------------|
F#|-------------------------------------------------------------------|
D|--------------------------------------------------------------------|
A|---------------------------------------------------2-3-2-0-2-3-2-2-2|
E|-5-5-5-/9-7-5-/7-5-4-------------3-3-3-/7~-5-7-7-7------------------|
B|-3-3-3-/7-5-3-/5-3-2-5-3-2-0-3-5-1-1-1-------5-5-5------------------|
      .                               .           
B |---------------------------------------------------|
F#|---------------------------------------------------|
D |---------------------------------------------------|
A |-7-7-7-5-5-5-3-3-3-5-5-5-3-3-3-2-2-2---5-3-2-0-2-3-|
E |---------------------------------------------------|
B |---------------------------------------------------|

I'll tab out the rest when im not tired.
I need help with the solo. Email me if you have something.

ĂŽnscrie-te la newsletter


Like us on Facebook