Officially Dead Tab - Veruca Salt






-------------------------------------------------------------------------------
    OFFICIALLY DEAD  - Veruca Salt
-------------------------------------------------------------------------------
Tabbed by: Karina
Email: magickmidget@hotmail.com

Tuning: Standard
Capo on 4th fret - or you can stretch and play it. It's not that difficult.

Intro/Chorus
e|------------------|-------------------|
B|------------------|-------------------|
G|----------9-9-9-9-|-------------------|
D|-6-6-8-6--9-9-9-9-|-6-6-8-6-----------|
A|-6-6-8-6--7-7-7-7-|-6-6-8-6--5/4--7/6-|
E|-4-4-4-4--7-7-7-7-|-4-4-4-4--5/4--7/6-|

Verses
e|---|------------|
B|---|------------|
G|---|------------|
D|-6-|--66666666--|
A|-6-|--66666666--|
E|-4-|--44444444--|

Bridge
e|-------------------------------------|----|
B|-------------------------------------|----|
G|----------77777777-44444444----------|----|
D|-77777777-77777777-44444444-55555555-|-5/-|
A|-77777777-55555555-22222222-55555555-|-5/-|
E|-55555555-------------------33333333-|-3/-|

Interlude between final chorus'
e|---------------------------------------------------------------------------------|
B|---------------------------------------------------------------------------------|
G|----------99999999-----------99999999----------99999999--------------------------|
D|-66666666-99999999-666666666-99999999-66666666-99999999-66666666-----------------|
A|-66666666-77777777-666666666-77777777-66666666-77777777-66666666-5/4-7/6-5/4-7/6-|
E|-44444444-77777777-444444444-77777777-44444444-77777777-44444444-5/4-7/6-5/4-7/6-|

| /  slide up
|   slide down
| h  hammer-on
| p  pull-off
| ~  vibrato
| +  harmonic
| x  Mute note
===============================================================================






Like us on Facebook