Gardens Tale Intro Tab - Volbeat






----------------------------------------------------------------------------
  GARDENS TALE - Volbeat
----------------------------------------------------------------------------
Tabbed by: Danni Frandsen
Email: danni3000@ofir.dk

I think this is right.

e|-------------------------------------------------------------------------|
B|-1--1-3-5--3-65-5--1h3p1-------1--1-3-5-5-3-65-5--1h3p1--------------1-|
G|--------------------------4p2-2---------------------------4p2-2------2---|
D|----------------------------------------------------------------3--3-----|
A|-------------------------------------------------------------------------|
E|-------------------------------------------------------------------------|

e|-------------------------------------------------------------------------|
B|-5--5/65-3p1-1-----------1--5--5/65-3p1-1--2times-1-3-3h5--5/65-3p1-1-|
G|-----------------2------2------------------------------------------------|
D|-------------------3--3--------------------------------------------------|
A|-------------------------------------------------------------------------|
E|-------------------------------------------------------------------------|


| /  slide up
|   slide down
| h  hammer-on
| p  pull-off

============================================================================

ĂŽnscrie-te la newsletter


Like us on Facebook