I Only Wanna Be With You (ver2) Tab - Volbeat






-------------------------------------------------------------------------------
     I Only Wanna Be With You - Volbeat
-------------------------------------------------------------------------------
Tabbed by: Onkel Dunkel
Email:

Tuning: Standard 7-string (Can also be played in drop-d)


Guitar 2 mostly plays the same throughout the song, sometimes an octave higher.

Intro part a:
e|---------------------------------------------------------------------------|
B|---------------------------------------------------------------------------|
G|---------------------------------------------------------------------------|
D|---------------------------------------------------------------------------|
A|-----------------------------5-5-5-5-5-------------------5-5-5-5--5--5-----|
E|-----------------------------5-5-5-5-5-------------------5-5-5-5--5--5-----|
B|----3-3-3-3-3-5-6-7--(x4)----3-3-3-3-3----5-6-7--(x4)----3-3-3-3--3--3-----|
      pm-------------                       -----

Intro part b:
e|---------------------------------------------------------------------------|
B|---------------------------------------------------------------------------|
G|---------------------------------------------------------------------------|
D|---------------------------------------------------------------------------|
A|--5-5--5-5-7-8-9---------5-5--5-7-5-8--------------------------------------|
E|--5-5--5-5-7-8-9---------5-5--5-7-5-8--------------------------------------|
B|--3-3--3-3-5-6-7---(x3)--3-3--3-5-3-6--------------------------------------|

Verse part a:
e|---------------------------------------------------------------------------|
B|---------------------------------------------------------------------------|
G|---------------------------------------------------------------------------|
D|-----------9-----------------9--------5----7----5----7---------------------|
A|--5--------9--------5--------9--------5----7----5----7---------------------|
E|--5--------7--------5--------7--------3----5----3----5---------------------|
B|--3-----------------3------------------------------------------------------|

Verse part b:
e|---------------------------------------------------------------------------|
B|---------------------------------------------------------------------------|
G|---------------------------------------------------------------------------|
D|-----------9--------5----7-----------------5----7--------------------------|
A|--5--------9--------5----7----5-7-7b9-5-7--5----7----5---------------------|
E|--5--------7--------3----5-----------------3----5----5---------------------|
B|--3--------------------------------------------------3---------------------|

Interlude:
e|---------------------------------------------------------------------------|
B|---------------------------------------------------------------------------|
G|---------------------------------------------------------------------------|
D|--8--------7---------------------------------------------------------------|
A|--8--------7--------8--------10--------12----------------------------------|
E|--6--------5--------8--------10--------12----------------------------------|
B|--------------------6--------8---------10----------------------------------|

ĂŽnscrie-te la newsletter


Like us on Facebook