At The Crack Of Doom Intro ver3 Tab - Warbringer






Hey guys I know that people want to know how to play the intro so here we go


"clean"
e------------------------------------------------|x5
b------------------------------------------------|
g-----------4-3---------4-3----7-----------------|
d---------4-----5-----4-----5--------------------|
a----2-5----------2-5----------------------------|
E------------------------------------------------|


repeat again with distortion listen to the song for timing
ok now the same thing now but this time your tremolo picking

"Main riff"
e------------------------------------------------|
b------------------------------------------------|
g-5/4-5/4-------------5/5---4--4---3-------------|
d-3/2-3/2-2-2-2-2-2-2-3/2-----5--5---------------|
a------------------------------------------------|
E------------------------------------------------|

And there you go just listen to the song for timing if you think you i have anything 
contact me at "Deadlylethalweapon94@yahoo.com"






Like us on Facebook