Werewolves Of London Solo (ver2) Tab - Warren Zevon






Solo to Werewolves of London
Warren Zevon
Excitable Boy



Slide Guitar 1
e|-----------------------------|---------------------------------|---------------------------|
b|-----------------------------|-------------3-------------3--0--|--3---5/7---8---10--10/12-|
g|-----------------------------|--2/4---2/4-----------2/4--------|---------------------------|
d|--0----2/3--0---4/5------0---|---------------------------------|---------------------------|
a|-----------------------------|---------------------------------|---------------------------|
e|-----------------------------|---------------------------------|---------------------------|

e|-----------15-------------|
b|--------------------------|
g|-----12-------------------|
d|----------------------0---|
a|--------------------------|
e|--------------------------|



e|------------------------------|-------------------------------------15----|-----------15------------|-------------------|
b|------------------------------|-8---10/12-------------12/10---------------|-15/1715--------1512---|--12--13--1512----|
g|------7-----7-7-7-7--x-97----|-------------12---12------------12---------|-------------------------|-----------------12|
d|-4






Like us on Facebook