Danger Toy Solo Bass Tab - Watchtower






WATCHTOWER - DANGEROUS TOY (BASS SOLO)
TABBED BY : COYPU [joba01@student.bth.se] - http://medieteknik.bth.se/joba01/

|-------7-5--------------------------------------1-3/5------------------/7-----5-8--------|
|-----------8-----8------------------1-3-4-1-3-4--------6---5-----5-6-8------6-----5-6----|
|---5-7-------7/8-------9----1-4-1-4----------------------8---6-5-------------------------|
|-8-----------------6-8-------------------------------------------------------------------|

|------------------------------------------2-3-5-7/9---5-4-2------4---------2-5-4---7-5-4---4-|
|---------------2-4h5-----4-4---3-5h6--3-5-------------------5-2--5-----2-5---------------5-4-|
|---------2-3-5---------6-----6---------------------------------------3-----------------------|
|-0-2-3-5-------------------------------------------------------------------------------------|

|---------------9p8-----------------5/4-3-----7-----|
|--------------------5-2/-5-4-2---2--------5--5-----|
|-------------6-------------------------------------|
|---0/3-6-7-8---------------------------------------|

ĂŽnscrie-te la newsletter


Like us on Facebook