Inaction (ver2) Bass Tab - We Are Scientists






This is my first tab ever. This tab is correct no doubts in my mind! Decided to make 
because i couldnt find tabs that were right.

Standard tuning: EADG

Verse
G|--------------------------------567--|
D|--777777777777-556-777777777777------|x4
A|-------------------------------------|
E|-------------------------------------|

Chorus
G|----1010--10-----1212---12---1010--10---77--7-|
D|----------------------------------------------|x2
A|--88-----8---1010-----10---88-----8---55---5--|
E|----------------------------------------------|

Verse x1

Bridge
G|------------------------------------------------------|
D|--77777777-99999999-1010101010101010-1212121212121212-| x2
A|------------------------------------------------------|
E|------------------------------------------------------|

Bridge cont'
G|---------------|
D|--7--7--7--7---|x4
A|---55-55-55-55-|
E|---------------|

Chorus x2

Interlude/Scale
G|--75-------|
D|----765----|x6
A|-------85--|
E|-----------|

Chorus x2

Interlude/Scale x8

Submitted by The WarDog

ĂŽnscrie-te la newsletter


Like us on Facebook