Lousy Reputation Solo Tab - We Are Scientists






---------------------------------------------------------------------
                     We Are Scientists - Lousy Reputation (Bass-Line)
---------------------------------------------------------------------

Song: Lousy Reputation
Artist: We Are Scientists
Album: With Love And Squalor

Tabbed By: A.Y.K. (10.27.05)

Notes: I'm pretty sure that it's actually a bass that is playing this
at the beginning of the song, even though it is written to be played 
on the guitar.  It basically alternates, one after the other, between
the first and second parts.

h = Hammer On
 = Slide (Down)

Part 1:

E|-------------------------------------------------------------------|
B|-------------------------------------------------------------------|
G|-------------------------------------------------------------------|
D|-------------------------------------------------------------------|
A|-------2h4-21---------2h4-21-------------------------------------|
E|---4-----------2-4---4---------2---0---7---7-0---0----7---7-6------|

Part 2:

E|-------------------------------------------------------------------|
B|-------------------------------------------------------------------|
G|-------------------------------------------------------------------|
D|-------------------------------------------------------------------|
A|-------2h4-21---------2h4-21-------------------------------------|
E|---4-----------2-4---4---------2---0---7---7-0---0--7-7-7-7-6------|

ĂŽnscrie-te la newsletter


Like us on Facebook