Worth The Wait Bass Tab - We Are Scientists






Verse
G------------------------------------------------------------------------|
D------------------------------------------------------------------------|
A-10--10-10-10--10-10-------------------------------------------8--8-9-9-|
E---------------------8--8-8-8--8-10-11--11-11-11--11-10-8--8-8----------|x2

Chorus
G---------------------------------------------------------------------------|
D---------------------------------------------------------------------------|
A-6-6-6-6-8-8-8-8-10-10-10-10-8-8-8-8-------------------10-10-10-10-8-8-8-8-|
E------------------------------------8-8-8-8-10-10-10-10--------------------|

Verse
G-------------------------------------------------------------------10-11-|
D-------------------------------------------------------------------------|
A-10--10-10-10--10-10-------------------------------------------8--8--8---|
E---------------------8--8-8-8--8-10-11--11-11-11--11-10-8--8-8-----------|

G-------------------------------------------------------------------------|
D-------------------------------------------------------------------------|
A-10--10-10-10--10-10-------------------------------------------8--8-9-9--|
E---------------------8--8-8-8--8-10-11--11-11-11--11-10-8--8-8-----------|

Chorus
G---------------------------------------------------------------------------|
D---------------------------------------------------------------------------|
A-6-6-6-6-8-8-8-8-10-10-10-10-8-8-8-8-------------------10-10-10-10-8-8-8-8-|
E------------------------------------8-8-8-8-10-10-10-10--------------------|

Second time round you have to play your note together with it's octave,like this. (but 
playing them four times like you did in the previous chorus just stick that high note in between.

G---8---10---12---10----------------12----10-|
D----------------------10----12--------------|
A-6---8----10---8----------------10-----8----|
E--------------------8----10-----------------|

Verse
G-----------------------------------------------------------------10-11-|
D-----------------------------------------------------------------------|
A-10--10-10-10--10-10---------------5-6------5-6-8-6-5--------8--8--8---|
E---------------------8--8-8-8--6-8------6-8-----------8--8-8-----------|

G-----------------------------------------------------------------------|
D-----------------------------------------------------------------------|
A-10--10-10-10--10-10---------------5-6------5-6-8-6-5--------8--8-9-9--|
E---------------------8--8-8-8--6-8------6-8-----------8--8-8-----------|

Chorus x3 (2nd time with octave)

End on
G----|
D----|
A-10-|
E----|

Enjoy

Tabbed by Nina

ĂŽnscrie-te la newsletter


Like us on Facebook