Sleep Well My Angel Intro Tab - We are the Fallen






           
E||------------------------|
B||-----------7------------|
G||--------7---------------|
D||-----7------------------|
A||--5---------------------|
E||------------------------|


---------------------------------------------------------------------------------------------|---|
---------------------------------------------------------------------------------------------|---|
--7--7-----6--------9------------4----6----7---------4----6----7---------4----6----7---------|---|
--------7--------7------------------------------4--------------------------------------------|---|
-----------4--5----------------------------5-------------------4----7--------------3----5----|---|
---------------------------------------------------------------------------------------------|---|






Like us on Facebook