Punk a*s b***h (ver2) Tab - Wheatus






this is the tab for Punk a*s b***h by Wheatus
Alwyn Thomas, aliwyn@zoom.co.uk

here it is

Standard Tuning
Riff 1 (used as intro firstly)

E5              D5
-----------------------------------
-----------------------------------
-9-9-9-9-9-9-9 -7-7----------------
-9-9-9-9-9-9-9 -7-7----------------
-7-7-7-7-7-7-7 -5-5----------------
-----------------------------------
x3 then
E5
-----------------
-----------------
-9-9-9-9-9-9- 9--
-9-9-9-9-9-9- 9--
-7-7-7-7-7-7- 7.-
-----------------
pm_________

Riff 2 (verse)
mainly this is just bass for the first part then play this with a half a*s palm mute

E5       B5        C#5         A5
---------------------------------------
---------------------------------------
-9-9-9-9-------------------------------
-9-9-9-9--9-9-9-9--11-11-11-11-7-7-7-7-
-7-7-7-7--9-9-9-9--11-11-11-11-7-7-7-7-
----------7-7-7-7--9- 9- 9- 9- 5-5-5-5-
pm__  _____  __________  ________

Riff 2 (chorus)

E5       B5        C#5        A5
---------------------------------------
---------------------------------------
-9-9-9-9-------------------------------
-9-9-9-9-9-9-9-9--11-11-11-11-7-7-7-7--
-7-7-7-7-9-9-9-9--11-11-11-11-7-7-7-7--
---------7-7-7-7--9 -9 -9 -9--5-5-5-5--
i        can't   deal   with this idiot
(no palm mute)then:

E5       B5       G5       G#5
---------------------------------------
---------------------------------------
-9-9-9-9-------------------------------
-9-9-9-9-9-9-9-9--5-5-5-5--6-6-6-6-----
-7-7-7-7-9-9-9-9--5-5-5-5--6-6-6-6-----
---------7-7-7-7--3-3-3-3--4-4-4-4-----
yeah must admit that he's a punkass b***h

that was the actual, complete tab
listen to the song to find the order of the riffs.

ĂŽnscrie-te la newsletter


Like us on Facebook