All I Need Intro (ver4) Tab - Within Temptation






think this is right not sure, i havent got my guitar as im going this 
drop B tuning


C#||--------------------------------------------------------|
G#||--------------------------------------------------------|
E ||-------------5h--6--5---------------5h--6--5------------|
B ||-------8-------------------------8----------6-------4---|
F#||-----8---8--------------------8-------------------4-----|
B ||--8-------------------------8------------------4--------|

C#||--------------------------------------------------------|
G#||--------------------------------------------------------|
E ||----------------------------------------5h--6--5--------|
B ||---------4--6-------------6----------------------6------|
F#||--------------4--------6----6---------------------------|
B ||---------------------6----------------------------------|






Like us on Facebook