Angels Tab - Within Temptation






Songs fairly simple, there's a couple of fillers and stuff I didn't really add, but they 
be pretty easy to figure out.


chorus

^ - up pick

     main chords                                  first ending  second ending
e--------------------------------------------------|------------|----------|
b--------------------------------------------------|------------|----------|
g--------------------------------------------------|------------|----------|
d--------------------------------------------------|------------|----------|
a--5--55--6--66--3--33--5--55--6--66--3--33--5--55-|-5-6-8--10--|-3-3--6-6-|
d--5--55--8--88--3--33--7--77--8--88--5--55--7--77-|-7-8-10-12--|-5-5--6-6-|
   ^      ^      ^      ^      ^      ^      ^

second main

e-----------------------------------------|
b-----------------------------------------|
g-----------------------------------------|
d-----------------------------------------|
a--555-555--666-8-8-8---333-333--666-555--|
d--555-555--888-101010--555-555--888-777--|

pre-chorus

e---------------------------------------------------------------------------------------------------------------|
b---------------------------------------------------------------------------------------------------------------|
g---------------------------------------------------------------------------------------------------------------|
d---------------------------------------------------------------------------------------------------------------|
a--3-3-xxx-3-3--xx--1-1-xxx-3-3--xx--6-6-xxx-6-6--xx--5-5-xxx-5-5--xx--3-3-xxx-3-3--xx--5-5-xxx-5-7--xx-|-1-|-3-|
d--5-5-xxx-5-5--xx--3-3-xxx-3-3--xx--8-8-xxx-8-8--xx--7-7-xxx-7-7--xx--5-5-xxx-5-5--xx--7-7-xxx-5-7--xx-|-1-|-3-|

pre-bridge?

(similar picking style to above)

e--------------|
b--------------|
g--------------|
d--------------|
a--3-0-1-3-|-5-|
d--5-0-1-3-|-5-|

bridge

e----|--------------------|
b----|--------------------|
g----|--------------------|
d----|--------------------|
a--1-|-1-1-3-3-1-1-3-3--5-|
d--1-|-1-3-3-5-1-3-3-5--5-|






Like us on Facebook