Frozen Tab - Within Temptation






Theres a second guitar in the first verse which I couldnt figure out, but all the 
electric work should be spot on.

p.m: palm mute
/: slide up
: slide down
x: mute

TUNING: dropped B
B Gb B E Ab Db

Guitar comes in at 0:07.
Db--------------------------|
Ab-------------3------------|
E------5----5--2------------|
B---2--5----5--0------------|
Gb--2--3----3--0------------|
B---2----------0------------|

(Harmony chords arranged for guitar)
      I can't feel my senses
Db--------------------------------|
Ab--5---------7--------8----------|
E---5---------7--------9----------|
B---5---------7--------9----------|
Gb--3---------5--------7----------|
B---------------------------------|

       I just feel the cold
Db--------------------------------|
Ab--5---------7---------8---------|
E---5---------7---------9---------|
B---5---------7---------9---------|
Gb--3---------5---------7---------|
B---------------------------------|

    All     colors    seem to fade away
Db-------------------------------------|
Ab--5--------7--------5-------------8--|
E---5--------7--------4-------------9--|
B---5--------7--------4-------------9--|
Gb--3--------5--------2-------------7--|
B--------------------------------------|

  I can't reach my soul
Db----------------------------|
Ab--5---------------7---------|
E---5---------------7---------|
B---5---------------7---------|
Gb--3---------------5---------|
B-----------------------------|

(Then guitar)
         I would stop running.........
Db----------------------------------------------|
Ab------------------------3--3-xx-3---3-3--3-xx-|
E----------5----5-5--5-xx-2--2-xx-2---2-2--2-xx-|
B--2--2-xx-5----5-5--5-xx-0--0-xx-0---0-0--0-xx-|
Gb-2--2-xx-3----3-3--3-xx-0--0-xx-0---0-0--0-xx-|
B--2--2-xx----------------0--0-xx-0---0-0--0-xx-|

     If i knew there     was a chance
Db----------------------------------------------|
Ab------------------------3--3-xx-3---3-3--3-xx-|
E----------5----5-5--5-xx-2--2-xx-2---2-2--2-xx-|
B--2--2-xx-5----5-5--5-xx-0--0-xx-0---0-0--0-xx-|
Gb-2--2-xx-3----3-3--3-xx-0--0-xx-0---0-0--0-xx-|
B--2--2-xx----------------0--0-xx-0---0-0--0-xx-|

It tears me apart     to sacrifice it all   but
Db----------------------------------------------|
Ab------------------------3--3-xx---------------|
E----------5----5-5--5-xx-2--2-xx-4---4-4--4-xx-|
B--2--2-xx-5----5-5--5-xx-0--0-xx-4---4-4--4-xx-|
Gb-2--2-xx-3----3-3--3-xx-0--0-xx-2---2-2--2-xx-|
B--2--2-xx----------------0--0-xx---------------|

i'm forced to    let   go          tell me i'm
Db--------------------------------------------|
Ab------------------------3--3-xx-3-----------|
E--5--5-xx-5----5-5--5-xx-2--2-xx-2-----------|
B--5--5-xx-5----5-5--5-xx-0--0-xx-0-----xx/9-|
Gb-3--3-xx-3----3-3--3-xx-0--0-xx-0-----xx/9-|
B-------------------------0--0-xx-0-----xx/9-|

Frozen         but what can i do   can't tell the
Db-----------------------------------------------|
Ab-----------------------------------------------|
E------------------------------------------------|
B--7--7-77-3----3-3--3-33-5--5-55-5----5-5--5-55-|
Gb-7--7-77-3----3-3--3-33-5--5-55-5----5-5--5-55-|
B--7--7-77-3----3-3--3-33-5--5-55-5----5-5--5-55-|
p.m     --             --      --             ---|

  Reasons i did for you when lies turn into truth
Db-----------------------------------------------|
Ab-----------------------------------------------|
E------------------------------------------------|
B--7--7-77-3----3-3--3-33-5--5-55-5----5-5--5-55-|
Gb-7--7-77-3----3-3--3-33-5--5-55-5----5-5--5-55-|
B--7--7-77-3----3-3--3-33-5--5-55-5----5-5--5-55-|
p.m     --             --      --             ---|

           I sacrificed for you  you say that i'm
Db----------------------------------------------|
Ab----------------------------------------------|
E-----------------------------------------------|
B--2--2-22-2----2-2--2-22-7--7-77-7----7-7--75-|
Gb-2--2-22-2----2-2--2-22-7--7-77-7----7-7--75-|
B--2--2-22-2----2-2--2-22-7--7-77-7----7-7--75-|
p.m     --             --      -----------------|

  Frozen
Db------------------------------------------|
Ab------------------------------------------|
E-------------------------------------------|
B--3-3-3-3---3-3-3-3---3-3-3--5-5-5-5---5-5-|
Gb-3-3-3-3---3-3-3-3---3-3-3--5-5-5-5---5-5-|
B--3-3-3-3---3-3-3-3---3-3-3--5-5-5-5---5-5-|
p.m- - - -   - - - -   - -    - - - -   - -

But what can i do
Db-------------------------|
Ab-------------------------|
E--------------------------|
B--2---------------7-------|
Gb-2---------------7-------|
B--2---------------7-------|

    I can feel your sorrow
Db----------------------------|
Ab-8------5-----------7-------|
E--9------5-----------7-------|
B--9------5-----------7-------|
Gb-7------3-----------5-------|
B-----------------------------|

Db-----------------------|
Ab----------3------------|
E------5----2------------|
B---2--5----0------------|
Gb--2--3----0------------|
B---2-------0------------|

         You won't forgive me
Db----------------------------------------------|
Ab------------------------3--3-33-3---3-3--3-33-|
E----------5----5-5--5-55-2--2-22-2---2-2--2-22-|
B--2--2-22-5----5-5--5-55-0--0-00-0---0-0--0-00-|
Gb-2--2-22-3----3-3--3-33-0--0-00-0---0-0--0-00-|
B--2--2-22----------------0--0-00-0---0-0--0-00-|
p.m     --             --      --            ---|

       but i know you'll be alright
Db----------------------------------------------|
Ab------------------------3--3-33-3---3-3--3-33-|
E----------5----5-5--5-55-2--2-22-2---2-2--2-22-|
B--2--2-22-5----5-5--5-55-0--0-00-0---0-0--0-00-|
Gb-2--2-22-3----3-3--3-33-0--0-00-0---0-0--0-00-|
B--2--2-22----------------0--0-00-0---0-0--0-00-|
p.m     --             --      --            ---|

It tears me apart     that you will never know
Db----------------------------------------------|
Ab------------------------3--3-33---------------|
E----------5----5-5--5-55-2--2-22-4---4-4--4-44-|
B--2--2-22-5----5-5--5-55-0--0-00-4---4-4--4-44-|
Gb-2--2-22-3----3-3--3-33-0--0-00-2---2-2--2-22-|
B--2--2-22----------------0--0-00---------------|
p.m     --             --      --            ---|

 but i have to let go            tell me i'm
Db-----------------------------------------|
Ab------------------------3----------------|
E--5--5-55-5----5-5--5-55-2----------------|
B--5--5-55-5----5-5--5-55-0-------xxx--xxx-|
Gb-3--3-33-3----3-3--3-33-0-------xxx--xxx-|
B-------------------------0-------xxx--xxx-|
p.m     --             --

Frozen         but what can i do   can't tell the
Db-----------------------------------------------|
Ab-----------------------------------------------|
E------------------------------------------------|
B--7--7-77-3----3-3--3-33-5--5-55-5----5-5--5-55-|
Gb-7--7-77-3----3-3--3-33-5--5-55-5----5-5--5-55-|
B--7--7-77-3----3-3--3-33-5--5-55-5----5-5--5-55-|
p.m     --             --      --             ---|

  Reasons i did for you when lies turn into truth
Db-----------------------------------------------|
Ab-----------------------------------------------|
E------------------------------------------------|
B--7--7-77-3----3-3--3-33-5--5-55-5----5-5--5-55-|
Gb-7--7-77-3----3-3--3-33-5--5-55-5----5-5--5-55-|
B--7--7-77-3----3-3--3-33-5--5-55-5----5-5--5-55-|
p.m     --             --      --             ---|

          I sacrificed for you  you say that i'm
Db----------------------------------------------|
Ab----------------------------------------------|
E-----------------------------------------------|
B--2--2-22-2----2-2--2-22-7--7-77-7----7-7--75-|
Gb-2--2-22-2----2-2--2-22-7--7-77-7----7-7--75-|
B--2--2-22-2----2-2--2-22-7--7-77-7----7-7--75-|
p.m     --             --      -----------------|

  Frozen
Db------------------------------------------|
Ab------------------------------------------|
E-------------------------------------------|
B--3-3-3-3---3-3-3-3---3-3-3--5-5-5-5---5-5-|
Gb-3-3-3-3---3-3-3-3---3-3-3--5-5-5-5---5-5-|
B--3-3-3-3---3-3-3-3---3-3-3--5-5-5-5---5-5-|
p.m- - - -   - - - -   - -    - - - -   - -

But what can i do
Db---------------------------|
Ab---------------------------|
E----------------------------|
B--2-2------------/9--------|
Gb-2-2------------/9--------|
B--2-2------------/9--------|
p.m- -

 Everything will slip away  shattered pieces will remain
Db------------------------------------------------|
Ab-------------------------3--3-33-3----3-3--3-33-|
E--------------------------2--2-22-2----2-2--2-22-|
B---3--3-33-3----3-3--3-33-0--0-00-0----0-0--0-00-|
Gb--3--3-33-3----3-3--3-33-0--0-00-0----0-0--0-00-|
B---3--3-33-3----3-3--3-33-0--0-00-0----0-0--0-00-|
p.m      --             --      --             ---|

  As memories fade into emptiness
Db------------------------------------------------|
Ab------------------------------------------------|
E-------------------------------------------------|
B---7--7-77-7----7-7--7-77-3--3-33-5----5-5--5-55-|
Gb--7--7-77-7----7-7--7-77-3--3-33-5----5-5--5-55-|
B---7--7-77-7----7-7--7-77-3--3-33-5----5-5--5-55-|
p.m      --             --      --             ---|

 Only time will tell his tale if it all has been in
Db------------------------------------------------|
Ab------------------------------------------------|
E-------------------------------------------------|
B---3--3-33-3----3-3--3-33-5--5-55-5----5-5--5-55-|
Gb--3--3-33-3----3-3--3-33-5--5-55-5----5-5--5-55-|
B---3--3-33-3----3-3--3-33-5--5-55-5----5-5--5-55-|
P.M      --             --      --             ---|

Vain
Db----------------------------------------|
Ab----------------------------------------|
E-----------------------------------------|
B---2-2-2-2-2-2-2-22-2--------------------|
Gb--2-2-2-2-2-2-2-22-2--------------------|
B---2-2-2-2-2-2-2-22-2--------------------|
p.m               --

I can't feel my senses        i just feel the
Db-----------------------------------------|
Ab--1----3-----5------------2--------3-----|
E---2----4-----5------------3--------4-----|
B---3----5-----7------------3--------5-----|
Gb-----------------------------------------|
B------------------------------------------|

Cold
Db--------------------------------|
Ab--------------------------------|
E---------------------------------|
B---2-2-2-2-2-2-2-2-2-2-2-2-2-2---|
Gb--2-2-2-2-2-2-2-2-2-2-2-2-2-2---|
B---2-2-2-2-2-2-2-2-2-2-2-2-2-2---|
p.m - - - - - - - - - - - - - -

       Frozen                   what can i do
Db-----------------------------------------------|
Ab-----------------------------------------------|
E------------------------------------------------|
B--7--7-77-3----3-3--3-33-5--5-55-5----5-5--5-55-|
Gb-7--7-77-3----3-3--3-33-5--5-55-5----5-5--5-55-|
B--7--7-77-3----3-3--3-33-5--5-55-5----5-5--5-55-|
p.m     --             --      --             ---|

       Frozen                         tell my i'm
Db-----------------------------------------------|
Ab-----------------------------------------------|
E------------------------------------------------|
B--7--7-77-3----3-3--3-33-5--5-55-5----2-2---5-5-|
Gb-7--7-77-3----3-3--3-33-5--5-55-5----2-2---5-5-|
B--7--7-77-3----3-3--3-33-5--5-55-5----2-2---5-5-|
p.m     --             --      ------------------|

Frozen         but what can i do   can't tell the
Db-----------------------------------------------|
Ab-----------------------------------------------|
E------------------------------------------------|
B--7--7-77-3----3-3--3-33-5--5-55-5----5-5--5-55-|
Gb-7--7-77-3----3-3--3-33-5--5-55-5----5-5--5-55-|
B--7--7-77-3----3-3--3-33-5--5-55-5----5-5--5-55-|
p.m     --             --      --             ---|

  Reasons i did for you when lies turn into truth
Db-----------------------------------------------|
Ab-----------------------------------------------|
E------------------------------------------------|
B--7--7-77-3----3-3--3-33-5--5-55-5----5-5--5-55-|
Gb-7--7-77-3----3-3--3-33-5--5-55-5----5-5--5-55-|
B--7--7-77-3----3-3--3-33-5--5-55-5----5-5--5-55-|
p.m     --             --      --             ---|

           I sacrificed for you  you say that i'm
Db----------------------------------------------|
Ab----------------------------------------------|
E-----------------------------------------------|
B--2--2-22-2----2-2--2-22-7--7-77-7----7-7--75-|
Gb-2--2-22-2----2-2--2-22-7--7-77-7----7-7--75-|
B--2--2-22-2----2-2--2-22-7--7-77-7----7-7--75-|
p.m     --             --      -----------------|

  Frozen
Db------------------------------------------|
Ab------------------------------------------|
E-------------------------------------------|
B--3-3-3-3---3-3-3-3---3-3-3--5-5-5-5---5-5-|
Gb-3-3-3-3---3-3-3-3---3-3-3--5-5-5-5---5-5-|
B--3-3-3-3---3-3-3-3---3-3-3--5-5-5-5---5-5-|
p.m- - - -   - - - -   - -    - - - -   - -

                 Frozen
Db-------------------------|
Ab-------------------------|
E--------------------------|
B--2-------------7---------|
Gb-2-------------7---------|
B--2-------------7---------|

The lyric layout is a bit weird but all the guitar parts should be correct,
have fun!






Like us on Facebook