Ice Queen (ver5) Tab - Within Temptation






Ice Queen
Within Temptation
Track number 2 from Mother Earth (?)
Tabbed By: Mariano Arnaiz
Anything to : marianoarnaiz@hotmail.com
Tunning: 1/2 step down Drop Db (DbAbDbGbBbeb)

Intro
eb||--------------------------|--------------------------||
Bb||--------------------------|--------------3-3-3-3--3--||
Gb||--------------------------|--------------2-2-2-2--2--||
Db||--7-7--7--7---3-3-3-3--3--|--7-7--7--7---0-0-0-0--0--||
Ab||--7-7--7--7---3-3-3-3--3--|--7-7--7--7---0-0-0-0--0--||
Db||--7-7--7--7---3-3-3-3--3--|--7-7--7--7---0-0-0-0--0--||

eb||--------------------------|---------------------------||
Bb||--------------------------|---------------------------||
Gb||--------------------------|--5--5--5--5---4--4--4--4--||
Db||--7-7--7--7---3-3-3-3--3--|--5--5--5--5---5--5--5--5--||
Ab||--7-7--7--7---3-3-3-3--3--|--3--3--3--3---2--2--2--2--||
Db||--7-7--7--7---3-3-3-3--3--|---------------------------||

eb||--------------------------|--------------------------||
Bb||--------------------------|--------------3-3-3-3--3--||
Gb||--------------------------|--------------2-2-2-2--2--||
Db||--7-7--7--7---3-3-3-3--3--|--7-7--7--7---0-0-0-0--0--||
Ab||--7-7--7--7---3-3-3-3--3--|--7-7--7--7---0-0-0-0--0--||
Db||--7-7--7--7---3-3-3-3--3--|--7-7--7--7---0-0-0-0--0--||

eb||--------------------------|---------------------------||
Bb||--------------------------|---------------------------||
Gb||--------------------------|--5--5--5--5---4--4--4--4--||
Db||--7-7--7--7---3-3-3-3--3--|--5--5--5--5---5--5--5--5--||
Ab||--7-7--7--7---3-3-3-3--3--|--3--3--3--3---2--2--2--2--||
Db||--7-7--7--7---3-3-3-3--3--|---------------------------||

eb||----------------------------------||
Bb||----------------------------------||
Gb||--5--5--5--5--5--5--5--5----------||
Db||--5--5--5--5--5--5--5--5---5-4-2--||
Ab||--3--3--3--3--3--3--3--3---3-2-0--||
Db||----------------------------------||

Verse 1
eb||--------------|--------------|--------------|--------------||
Bb||--------------|--------------|--------------|--------------||
Gb||--------------|--------------|--5--5--5--5--|--------------|| x4
Db||--7--7--7--7--|--3--3--3--3--|--5--5--5--5--|--5--5--5--5--||
Ab||--7--7--7--7--|--3--3--3--3--|--3--3--3--3--|--5--5--5--5--||
Db||--7--7--7--7--|--3--3--3--3--|--------------|--5--5--5--5--||

Chorus
eb||----------------|----------------|----------------|--------------|--------------||
Bb||----------------|----------------|----------------|--------------|--------------||
Gb||----------------|----------------|----------------|--5--5--5--5--|--------------||
Db||--7-7-7--0-0-0--|--7-7-7--0-0-0--|--7-7-7--0-0-0--|--5--5--5--5--|--5--5--5--5--||
Ab||--7-7-7--0-0-0--|--7-7-7--0-0-0--|--7-7-7--0-0-0--|--3--3--3--3--|--5--5--5--5--||
Db||--7-7-7--0-0-0--|--7-7-7--0-0-0--|--7-7-7--0-0-0--|--------------|--5--5--5--5--||

eb||----------------|----------------|--------------|--------------||
Bb||----------------|----------------|--6~~~~~~~~~--|--3~~~~~~~~~--||
Gb||----------------|----------------|--5~~~~~~~~~--|--2~~~~~~~~~--||
Db||--7-7-7--0-0-0--|--7-7-7--0-0-0--|--3~~~~~~~~~--|--0~~~~~~~~~--||
Ab||--7-7-7--0-0-0--|--7-7-7--0-0-0--|--3~~~~~~~~~--|--0~~~~~~~~~--||
Db||--7-7-7--0-0-0--|--7-7-7--0-0-0--|--3~~~~~~~~~--|--0~~~~~~~~~--||

Verse 2
eb||--------------|--------------|--------------|--------------||
Bb||--------------|--------------|--------------|--------------||
Gb||--------------|--------------|--5--5--5--5--|--------------|| x4
Db||--7--7--7--7--|--3--3--3--3--|--5--5--5--5--|--5--5--5--5--||
Ab||--7--7--7--7--|--3--3--3--3--|--3--3--3--3--|--5--5--5--5--||
Db||--7--7--7--7--|--3--3--3--3--|--------------|--5--5--5--5--||

Bridge

eb||--------------|--------------|--------------|----3---------|------8-------|------------------|-----------||
Bb||--------6-----|--------3-----|--------10----|-------3------|---------7----|------------------|-----------||
Gb||------5-------|----------2---|-----------8--|----------0---|-----------6--|------------------|--4./5./7--|| 
Db||--------------|--------------|------7-------|--------------|--------------|------------------|-----------||
Ab||--------------|--------------|--------------|--------------|--------------|--3~~~-2~~~-0~~~--|--2./3./5--||
Db||--3~~~~~~~~~--|--0~~~~~~~~~--|--7~~~~~~~~~--|--5~~~~~~~~~--|--3~~~~~~~~~--|------------------|-----------||

eb||--------------|--------------|--------------|----3---------|------8-------|------------------|------------------||
Bb||--------6-----|--------3-----|---------9----|-------3------|---------7----|------------------|------------------||
Gb||------5-------|----------2---|-----------8--|----------0---|-----------6--|------------------|-----HARMONICS----|| 
Db||--------------|--------------|------7-------|--------------|--------------|------------------|--..............--||
Ab||--------------|--------------|--------------|--------------|--------------|--3~~~-2~~~-0~~~--|--12-12-12-12-12--||
Db||--3~~~~~~~~~--|--0~~~~~~~~~--|--7~~~~~~~~~--|--5~~~~~~~~~--|--3~~~~~~~~~--|------------------|------------------||


HYPER-FAST GUITAR SOLO (jajaja, just kiding, it needs one thoe, jajaja, with my fiernds i play a 
                        kind of nice thinf if you want it mail me, its plaid over the slow part)
Interlude
eb||--------------------------|--------------------------||
Bb||--------------------------|--------------3-3-3-3--3--||
Gb||--------------------------|--------------2-2-2-2--2--||
Db||--7-7--7--7---3-3-3-3--3--|--7-7--7--7---0-0-0-0--0--||
Ab||--7-7--7--7---3-3-3-3--3--|--7-7--7--7---0-0-0-0--0--||
Db||--7-7--7--7---3-3-3-3--3--|--7-7--7--7---0-0-0-0--0--||

eb||--------------------------|---------------------------||
Bb||--------------------------|---------------------------||
Gb||--------------------------|--5--5--5--5---4--4--4--4--||
Db||--7-7--7--7---3-3-3-3--3--|--5--5--5--5---5--5--5--5--||
Ab||--7-7--7--7---3-3-3-3--3--|--3--3--3--3---2--2--2--2--||
Db||--7-7--7--7---3-3-3-3--3--|---------------------------||

eb||-----------------------||
Bb||-----------------------||
Gb||--5--5--5--5-----------||
Db||--5--5--5--5----5-4-2--||
Ab||--3--3--3--3----3-2-0--||
Db||-----------------------||

Verse 3
eb||--------------|--------------|--------------|--------------||
Bb||--------------|--------------|--------------|--------------||
Gb||--------------|--------------|--5--5--5--5--|--------------|| x4
Db||--7--7--7--7--|--3--3--3--3--|--5--5--5--5--|--5--5--5--5--||
Ab||--7--7--7--7--|--3--3--3--3--|--3--3--3--3--|--5--5--5--5--||
Db||--7--7--7--7--|--3--3--3--3--|--------------|--5--5--5--5--||

Chorus
eb||----------------|----------------|----------------|--------------|--------------||
Bb||----------------|----------------|----------------|--------------|--------------||
Gb||----------------|----------------|----------------|--5--5--5--5--|--------------||
Db||--7-7-7--0-0-0--|--7-7-7--0-0-0--|--7-7-7--0-0-0--|--5--5--5--5--|--5--5--5--5--||
Ab||--7-7-7--0-0-0--|--7-7-7--0-0-0--|--7-7-7--0-0-0--|--3--3--3--3--|--5--5--5--5--||
Db||--7-7-7--0-0-0--|--7-7-7--0-0-0--|--7-7-7--0-0-0--|--------------|--5--5--5--5--||

eb||----------------|----------------|--------------|--------------||
Bb||----------------|----------------|--6~~~~~~~~~--|--3~~~~~~~~~--||
Gb||----------------|----------------|--5~~~~~~~~~--|--2~~~~~~~~~--||
Db||--7-7-7--0-0-0--|--7-7-7--0-0-0--|--3~~~~~~~~~--|--0~~~~~~~~~--||
Ab||--7-7-7--0-0-0--|--7-7-7--0-0-0--|--3~~~~~~~~~--|--0~~~~~~~~~--||
Db||--7-7-7--0-0-0--|--7-7-7--0-0-0--|--3~~~~~~~~~--|--0~~~~~~~~~--||

Final Bridge (you can strum more than once if you want to)
eb||--------------|--------------|--------------|----3---------|------8-------|------------------|-----------||
Bb||--------6-----|--------3-----|--------10----|-------3------|---------7----|------------------|--10-------||
Gb||------5-------|----------2---|-----------8--|----------0---|-----------6--|------------------|--9--------|| 
Db||--3~~~~~~~~~--|--0~~~~~~~~~--|--7~~~~~~~~~--|--5~~~~~~~~~--|--3~~~~~~~~~--|--5----4----2-----|--7--------||
Ab||--3~~~~~~~~~--|--0~~~~~~~~~--|--7~~~~~~~~~--|--5~~~~~~~~~--|--3~~~~~~~~~--|--3~~~-2~~~-0~~~--|--7--------||
Db||--3~~~~~~~~~--|--0~~~~~~~~~--|--7~~~~~~~~~--|--5~~~~~~~~~--|--3~~~~~~~~~--|------------------|--7--------||

eb||--------------|--------------|--------------|----3---------|------8-------|------------------||
Bb||--------6-----|--------3-----|---------9----|-------3------|---------7----|------------------||
Gb||------5-------|----------2---|-----------8--|----------0---|-----------6--|------------2~~~--|| 
Db||--3~~~~~~~~~--|--0~~~~~~~~~--|--7~~~~~~~~~--|--5~~~~~~~~~--|--3~~~~~~~~~--|--5----4----2~~~--||
Ab||--3~~~~~~~~~--|--0~~~~~~~~~--|--7~~~~~~~~~--|--5~~~~~~~~~--|--3~~~~~~~~~--|--3~~~-2~~~-0~~~--||
Db||--3~~~~~~~~~--|--0~~~~~~~~~--|--7~~~~~~~~~--|--5~~~~~~~~~--|--3~~~~~~~~~--|------------------||







Like us on Facebook