Ice Queen Tab - Within Temptation






-------------------------------------------------------------------------------
Ice Queen  Within temptation
-------------------------------------------------------------------------------
tuning half step down   and drop D
By: Guano wape
Intro 2x
eb|---------------------------------------------------------
Bb|---------------------------------------------------------
Gb|---------------------------------------------------------
Db|--7777/33337777/0000-7777/3333-10101010/9999------------
Ab|--7777/33337777/0000-7777/3333-10101010/9999------------
Db|--7777/33337777/0000-7777/3333-10101010/9999------------
After 2nd time
|-----------------------------------------------------------
|-----------------------------------------------------------
|-----------------------------------------------------------
|--10xxx10xxx10xxxxx10--10----------------------------------
|--10xxx10xxx10xxxxx10--10----------------------------------
|--10xxx10xxx10xxxxx10--1097--------------------------------

main part
|-----------------------------------------------------------
|-----------------------------------------------------------
|------------------------------------------1097-------------
|--7777/33335555/----------7777/33335555/-----------------
|--7777/33333333/5555------7777/33333333/8-75-------------
|--7777/3333------5555------7777/3333-----------------------
         ..
|-----------------------------------------------------------
|-----------------------------------------------------------
|-----------------------------------------------------------
|--3-3-3--5555------10-1010--9------------------------------
|--3-3-3--5555------10-1010--9------------------------------
|--3-3-3--5555------10-1010--9------------------------------
   . .    ...
last part
|-----------------------------------------------------------
|-----------------------------------------------------------
|-----------------------------------------------------------
|-3-----5-----7------5------3------0------7------5----------
|-3-----3-----7------5------3------0------7------5----------
|-3-----------7------5------3------0------7------5----------

|-----------------------------------------------------------
|-----------------------------------------------------------
|-----------------------------------------------------------
|-3-----10-------9-----7~----------------------------------
|-3-----10-------9-----7~-----------------------------------
|-3-----10-------9-----7~-----------------------------------






Like us on Facebook