What Have You Done (ver2) Tab - Within Temptation






Tuning
Dropped B
B,Gb,B,E,Ab,Db,

p.m-palm mute
/slide up
( )let ring


intro
Db-------------------------------------------------|
Ab-------------------------------------------------|
E--------------------------------------------------|
B--------------------2-2-2-0--3-3-3--2-5--3--------|
Gb-3-3-3-2--5-5-5--3------------------------3-5-2--|
B--------------------------------------------------|

Db----------------------------1-1-1--0--3--1-------|
Ab-1-1-1-0--3-3-3-1--5-5-5--3----------------1-3-0-|
E--------------------------------------------------|
B--------------------------------------------------|
Gb-------------------------------------------------|
B--------------------------------------------------|

       would you mind if i hurt you        understand that i need to
Db-------------------------------------------------------------------|
Ab-1------------------------1----------1---------------------1-----3-|
E--2------------------------2----------2---------------------2-----4-|
B--2------------------------3----------2---------------------3-----5-|
Gb-0-----------------------------------0-----------------------------|
B------------------------ -------------------------------------------|

       wish that i had other choices      than to harm the one i love
Db------------------------------------------------------------------|
Ab-1--------------------------1--------3--------------------------0-|
E--2--------------------------2--------4--------------------------1-|
B--2--------------------------3--------5--------------------------2-|
Gb-0----------------------------------------------------------------|
B-------------------------------------------------------------------|

WHAT HAVE YOU DONE NOW!

Db------------------------------------------------------------|
Ab------------------------------------------------------------|
E-------------------------------------------------------------|
B-----------------------------------------------------------3-|
Gb-5/7-7-7-7-7-5/7-7-7-7-7----------5/7-7-7-7-7-7-7-5/7-7-7-3-|
B--5/7-7-7-7-7-5/7-7-7-7-7-9-10-9-5-5/7-7-7-7-7-7-7-5/7-7-7-3-|
p.m    - - - -     - - - - - -- - -     - - - - - -     - -

Db------------------------------------------------------------|
Ab------------------------------------------------------------|
E-------------------------------------------------------------|
B-----------------------------------------------------------3-|
Gb-5/7-7-7-7-7-5/7-7-7-7-7----------5/7-7-7-7-7-7-7-5/7-7-7-3-|
B--5/7-7-7-7-7-5/7-7-7-7-7-9-10-9-5-5/7-7-7-7-7-7-7-5/7-7-7-3-|
p.m    - - - -     - - - - - -- - -     - - - - - -     - -

     i know  i'd better stop tryin   you know that there's no denying
Db-------------------------------------------------1-----------------|
Ab-----0------1--------------------------1-----------------1----0----|
E-------------------------------------2-----2---------------------0--|
B----2------2-----------------------3--------------------------------|
Gb-0-----------------------------------------------------------------|
B--------------------------------------------------------------------|

     i      won't  show  mercy     on  you now
Db-----------------------------------------------------|
Ab-----0------1----------------1-----------------------|
E----------------------------2---2------4--5-4---------|
B----2------2--------------3--------5------------------|
Gb-0---------------------------------------------------|
B------------------------------------------------------|

   i know should stop believing  i know there's no retrieving
Db---------------------------------------------------------|
Ab---------------------------------------------------------|
E----------------------------------------------------------|
B--7---7-7-7-7---7-7-7-7---7-7-3---3-3-3-3---3-3-3-5---5-5-|
Gb-7---7-7-7-7---7-7-7-7---7-7-3---3-3-3-3---3-3-3-5---5-5-|
B--7---7-7-7-7---7-7-7-7---7-7-3---3-3-3-3---3-3-3-5---5-5-|
p.m      - -       - -     - -       - -       - -     - -

      it's   over         now        what  have  you  done
Db---------------------------------------------------------|
Ab---------------------------------------------------------|
E----------------------------------------------------------|
B--3---3-3-3-3---3-3-3-3---3-3-5---5-5-5-5---5-5-5-5---5-5-|
Gb-3---3-3-3-3---3-3-3-3---3-3-5---5-5-5-5---5-5-5-5---5-5-|
B--3---3-3-3-3---3-3-3-3---3-3-5---5-5-5-5---5-5-5-5---5-5-|
p.m      - -       - -     - -       - -       - -     - -

                                    WHAT HAVE YOU DONE NOW!
Db---------------------------------------------------------|
Ab-1--------------------------0----------------------------|
E--2--------------------------1----------------------------|
B--3--------------------------2----------------------------|
Gb---------------------------------------------------------|
B----------------------------------------------------------|

   i...............  i've been waiting for someone like
Db-----------------------------------------------------|
Ab-----------------------------------------------------|
E------------------------------------------------------|
B--7---7-7-7-3---3-3--3--3-3-5---5-5-5-0---0-0--0--0-0-|
Gb-7---7-7-7-3---3-3--3--3-3-5---5-5-5-0---0-0--0--0-0-|
B--7---7-7-7-3---3-3--3--3-3-5---5-5-5-0---0-0--0--0-0-|
p.m      - -             - -       - -             - -

  you....... but now you are slipping away what have you done now
Db--------------------------------------------------------|
Ab--------------------------------------------------------|
E---------------------------------------------------------|
B--7---7-7-7-3---3-3--3--3-3-5---5-5-5-5---5-5-5--5-5-5-5-|
Gb-7---7-7-7-3---3-3--3--3-3-5---5-5-5-5---5-5-5--5-5-5-5-|
B--7---7-7-7-3---3-3--3--3-3-5---5-5-5-5---5-5-5--5-5-5-5-|
p.m      - -             - -       - -       - -      - -

   why............... why does fate make us suffer
Db-----------------------------------------------------|
Ab-----------------------------------------------------|
E------------------------------------------------------|
B--7---7-7-7-3---3-3--3--3-3-5---5-5-5-0---0-0--0--0-0-|
Gb-7---7-7-7-3---3-3--3--3-3-5---5-5-5-0---0-0--0--0-0-|
B--7---7-7-7-3---3-3--3--3-3-5---5-5-5-0---0-0--0--0-0-|
p.m      - -             - -       - -             - -

             there's a curse between us  between me and
Db---------------------------------------------------------|
Ab---------------------------------------------------------|
E----------------------------------------------------------|
B--3---3-3-3-3---3-3-3-3---3-3-5---5-5-5-5---5-5-5-5---5-5-|
Gb-3---3-3-3-3---3-3-3-3---3-3-5---5-5-5-5---5-5-5-5---5-5-|
B--3---3-3-3-3---3-3-3-3---3-3-5---5-5-5-5---5-5-5-5---5-5-|
p.m      - -       - -     - -       - -       - -     - -

you
  WHAT HAVE YOU DONE X4                    WHAT HAVE YOU DONE NOW
Db------------------------------------------------------------|
Ab------------------------------------------------------------|
E-------------------------------------------------------------|
B-----------------------------------------------------------3-|
Gb-5/7-7-7-7-7-5/7-7-7-7-7----------5/7-7-7-7-7-7-7-5/7-7-7-3-|
B--5/7-7-7-7-7-5/7-7-7-7-7-9-10-9-5-5/7-7-7-7-7-7-7-5/7-7-7-3-|
p.m    - - - -     - - - - - -- - -     - - - - - -     - -

  WHAT HAVE YOU DONE X4                    WHAT HAVE YOU DONE NOW
Db------------------------------------------------------------|
Ab------------------------------------------------------------|
E-------------------------------------------------------------|
B-----------------------------------------------------------3-|
Gb-5/7-7-7-7-7-5/7-7-7-7-7----------5/7-7-7-7-7-7-7-5/7-7-7-3-|
B--5/7-7-7-7-7-5/7-7-7-7-7-9-10-9-5-5/7-7-7-7-7-7-7-5/7-7-7-3-|
p.m    - - - -     - - - - - -- - -     - - - - - -     - -

            would you mind if i   killed    you
Db-------------------------------------------------1-----------------|
Ab-----0------1--------------------------1-----------------1----0----|
E-------------------------------------2-----2---------------------0--|
B----2------2-----------------------3--------------------------------|
Gb-0-----------------------------------------------------------------|
B--------------------------------------------------------------------|

          would you mind if i tried to cause you have
Db-----------------------------------------------------|
Ab-----0------1----------------1-----------------------|
E----------------------------2---2------4--5-4---------|
B----2------2--------------3--------5------------------|
Gb-0---------------------------------------------------|
B------------------------------------------------------|

   turned into my worst enemy  you carry hate that i don't feel
Db---------------------------------------------------------|
Ab---------------------------------------------------------|
E----------------------------------------------------------|
B--7---7-7-7-7---7-7-7-7---7-7-3---3-3-3-3---3-3-3-5---5-5-|
Gb-7---7-7-7-7---7-7-7-7---7-7-3---3-3-3-3---3-3-3-5---5-5-|
B--7---7-7-7-7---7-7-7-7---7-7-3---3-3-3-3---3-3-3-5---5-5-|
p.m      - -       - -     - -       - -       - -     - -

      it's   over         now        what  have  you  done
Db---------------------------------------------------------|
Ab---------------------------------------------------------|
E----------------------------------------------------------|
B--3---3-3-3-3---3-3-3-3---3-3-5---5-5-5-5---5-5-5-5---5-5-|
Gb-3---3-3-3-3---3-3-3-3---3-3-5---5-5-5-5---5-5-5-5---5-5-|
B--3---3-3-3-3---3-3-3-3---3-3-5---5-5-5-5---5-5-5-5---5-5-|
p.m      - -       - -     - -       - -       - -     - -

                                    WHAT HAVE YOU DONE NOW!
Db----------1----------------------4---5---4---------------|
Ab-----1------1--1--1---------0----------------------------|
E----2---1-------------2----1---1--------------------------|
B--3----------------------2--------------------------------|
Gb---------------------------------------------------------|
B----------------------------------------------------------|

   i...............  i've been waiting for someone like
Db-----------------------------------------------------|
Ab-----------------------------------------------------|
E------------------------------------------------------|
B--7---7-7-7-3---3-3--3--3-3-5---5-5-5-0---0-0--0--0-0-|
Gb-7---7-7-7-3---3-3--3--3-3-5---5-5-5-0---0-0--0--0-0-|
B--7---7-7-7-3---3-3--3--3-3-5---5-5-5-0---0-0--0--0-0-|
p.m      - -             - -       - -             - -

  you....... but now you are slipping away what have you done now
Db--------------------------------------------------------|
Ab--------------------------------------------------------|
E---------------------------------------------------------|
B--7---7-7-7-3---3-3--3--3-3-5---5-5-5-5---5-5-5--5-5-5-5-|
Gb-7---7-7-7-3---3-3--3--3-3-5---5-5-5-5---5-5-5--5-5-5-5-|
B--7---7-7-7-3---3-3--3--3-3-5---5-5-5-5---5-5-5--5-5-5-5-|
p.m      - -             - -       - -       - -      - -

   why............... why does fate make us suffer
Db-----------------------------------------------------|
Ab-----------------------------------------------------|
E------------------------------------------------------|
B--7---7-7-7-3---3-3--3--3-3-5---5-5-5-0---0-0--0--0-0-|
Gb-7---7-7-7-3---3-3--3--3-3-5---5-5-5-0---0-0--0--0-0-|
B--7---7-7-7-3---3-3--3--3-3-5---5-5-5-0---0-0--0--0-0-|
p.m      - -             - -       - -             - -

             there's a curse between us  between me and
Db---------------------------------------------------------|
Ab---------------------------------------------------------|
E----------------------------------------------------------|
B--3---3-3-3-3---3-3-3-3---3-3-5---5-5-5-5---5-5-5-5---5-5-|
Gb-3---3-3-3-3---3-3-3-3---3-3-5---5-5-5-5---5-5-5-5---5-5-|
B--3---3-3-3-3---3-3-3-3---3-3-5---5-5-5-5---5-5-5-5---5-5-|
p.m      - -       - -     - -       - -       - -     - -

you
  WHAT HAVE YOU DONE X4                    WHAT HAVE YOU DONE NOW
Db------------------------------------------------------------|
Ab------------------------------------------------------------|
E-------------------------------------------------------------|
B-----------------------------------------------------------3-|
Gb-5/7-7-7-7-7-5/7-7-7-7-7----------5/7-7-7-7-7-7-7-5/7-7-7-3-|
B--5/7-7-7-7-7-5/7-7-7-7-7-9-10-9-5-5/7-7-7-7-7-7-7-5/7-7-7-3-|

  WHAT HAVE YOU DONE X4                    WHAT HAVE YOU DONE NOW
Db------------------------------------------------------------|
Ab------------------------------------------------------------|
E-------------------------------------------------------------|
B-----------------------------------------------------------3-|
Gb-5/7-7-7-7-7-5/7-7-7-7-7----------5/7-7-7-7-7-7-7-5/7-7-7-3-|
B--5/7-7-7-7-7-5/7-7-7-7-7-9-10-9-5-5/7-7-7-7-7-7-7-5/7-7-7-3-|
p.m    - - - -     - - - - - -- - -     - - - - - -     - -

Db----------------|
Ab----------------|
E-----------------|
B--(7)------------|
Gb-(7)------------|
B--(7)------------|

an acoustic plays this right after the electric rings
Db-------------------------------------------------------|
Ab-1---1-1-1-1---1-1-1-1--1-1-3---3-3-3-0---0-0-0-0--0-0-|
E--2---2-2-2-2---2-2-2-2--2-2-2---2-2-2-2---2-2-2-2--2-2-|
B--2---2-2-2-2---2-2-2-2--2-2-2---2-2-2-2---2-2-2-2--2-2-|
Gb-0---0-0-0-0---0-0-0-0--0-0-0---0-0-0-0---0-0-0-0--0-0-|
B--------------------------------------------------------|

                                            what have you done
Db-------------------------------------------------------|
Ab-1---1-1-1-1---1-1-1-1--1-3-1---1-1-1-0---0-0-0-0--0-0-|
E--2---2-2-2-2---2-2-2-2--2-2-2---2-2-2-2---2-2-2-0--0-0-|
B--2---2-2-2-2---2-2-2-2--2-2-2---2-2-2-2---2-2-2-2--2-2-|
Gb-0---0-0-0-0---0-0-0-0--0-0-0---0-0-0-0---0-0-0-0--0-0-|
B--------------------------------------------------------|

Db-------------------------------------------------------|
Ab-1---1-1-1-1---1-1-1-1--1-1-3---3-3-3-0---0-0-0-0--0-0-|
E--2---2-2-2-2---2-2-2-2--2-2-2---2-2-2-2---2-2-2-2--2-2-|
B--2---2-2-2-2---2-2-2-2--2-2-2---2-2-2-2---2-2-2-2--2-2-|
Gb-0---0-0-0-0---0-0-0-0--0-0-0---0-0-0-0---0-0-0-0--0-0-|
B--------------------------------------------------------|

   what have you done
Db-------------------------------------------------------------|
Ab-1---1-1-1-1---1-1-1-1--1-0----------------------------------|
E--2---2-2-2-2---2-2-2-2--2-2----------------------------------|
B--2---2-2-2-2---2-2-2-2--2-2------wait-16-beats---------------|
Gb-0---0-0-0-0---0-0-0-0--0-0----------------------------------|
B--------------------------------------------------------------|

Db---------------------------------------------------------|
Ab---------------------------------------------------------|
E----------------------------------------------------------|
B----------------------------------------------------------|
Gb-0-0-0-0--0-0-0---0-0--0-0-0-7-7-7-7--7-7-7---7-7--7-7-7-|
B--0-0-0-0--0-0-0---0-0--0-0-0-7-7-7-7--7-7-7---7-7--7-7-7-|
p.m- - - -  - - -   - -  - - - - - - -  - - -   - -  - - -

Db-----------------------------------------------------------|
Ab-----------------------------------------------------------|
E------------------------------------------------------------|
B------------------------------5-5-5-5--5-5-5----------------|
Gb-5-5-5-5--5-5-5---5-5--5-5-5-3-3-3-3--3-3-3--3-2-0-2-3-2-0-|
B--5-5-5-5--5-5-5---5-5--5-5-5-----------------3-2-0-2-3-2-0-|
p.m- - - -  - - -   - -  - - - - - - -  - - -  - - - - - - -

Db---------------------------------------------------------|
Ab---------------------------------------------------------|
E----------------------------------------------------------|
B----------------------------------------------------------|
Gb-0-0-0-0--0-0-0---0-0--0-0-0-7-7-7-7--7-7-7---7-7--7-7-7-|
B--0-0-0-0--0-0-0---0-0--0-0-0-7-7-7-7--7-7-7---7-7--7-7-7-|
p.m- - - -  - - -   - -  - - - - - - -  - - -   - -  - - -

Db------------------------------------------------------------|
Ab------------------------------------------------------------|
E-------------------------------------------------------------|
B-----------------------------------------------------7-7-7-7-|
Gb-5-5-5-5--5-5-5---5-5--5-5-5-7-7-7-7--7-7-7-7-7-7-7-7-7-7-7-|
B--5-5-5-5--5-5-5---5-5--5-5-5-7-7-7-7--7-7-7-7-7-7-7-7-7-7-7-|
p.m- - - -  - - -   - -  - - - - - - -  - - - - - - - - - - -

   i............  will not fall..........
Db-----------------------------------------------------|
Ab-----------------------------------------------------|
E------------------------------------------------------|
B--3---3--3-3-3-3-3-3-3--3-3-5---5--5-5-5-5-5-5-5--5-5-|
Gb-3---3--3-3-3-3-3-3-3--3-3-5---5--5-5-5-5-5-5-5--5-5-|
B--3---3--3-3-3-3-3-3-3--3-3-5---5--5-5-5-5-5-5-5--5-5-|

   won't......... let  it  go................
Db--------------------------------------------------|
Ab--------------------------------------------------|
E---------------------------------------------------|
B--2---2--2-2-2-2-2-2-2--2-2-7--7--7-7--7-7--7--7-5-|
Gb-2---2--2-2-2-2-2-2-2--2-2-7--7--7-7--7-7--7--7-5-|
B--2---2--2-2-2-2-2-2-2--2-2-7--7--7-7--7-7--7--7-5-|

   we............  will be free.......... when it
Db-----------------------------------------------------|
Ab-----------------------------------------------------|
E------------------------------------------------------|
B--3---3--3-3-3-3-3-3-3--3-3-5---5--5-5-5-5-5-5-5--5-5-|
Gb-3---3--3-3-3-3-3-3-3--3-3-5---5--5-5-5-5-5-5-5--5-5-|
B--3---3--3-3-3-3-3-3-3--3-3-5---5--5-5-5-5-5-5-5--5-5-|

   ends..................
Db------------------------------|
Ab------------------------------|
E-------------------------------|
B--2-2-2--2-2-2-2-2--2--2-2-----|(2)
Gb-2-2-2--2-2-2-2-2--2--2-2-----|(2)
B--2-2-2--2-2-2-2-2--2--2-2-----|(2)
p.m- -    - - -   -     - -

   i...............  i've been waiting for someone like
Db-----------------------------------------------------|
Ab-----------------------------------------------------|
E------------------------------------------------------|
B--7---7-7-7-3---3-3--3--3-3-5---5-5-5-0---0-0--0--0-0-|
Gb-7---7-7-7-3---3-3--3--3-3-5---5-5-5-0---0-0--0--0-0-|
B--7---7-7-7-3---3-3--3--3-3-5---5-5-5-0---0-0--0--0-0-|
p.m      - -             - -       - -             - -

  you....... but now you are slipping away what have you done now
Db--------------------------------------------------------|
Ab--------------------------------------------------------|
E---------------------------------------------------------|
B--7---7-7-7-3---3-3--3--3-3-5---5-5-5-5---5-5-5--5-5-5-5-|
Gb-7---7-7-7-3---3-3--3--3-3-5---5-5-5-5---5-5-5--5-5-5-5-|
B--7---7-7-7-3---3-3--3--3-3-5---5-5-5-5---5-5-5--5-5-5-5-|
p.m      - -             - -       - -       - -      - -

   why............... why does fate make us suffer
Db-----------------------------------------------------|
Ab-----------------------------------------------------|
E------------------------------------------------------|
B--7---7-7-7-3---3-3--3--3-3-5---5-5-5-0---0-0--0--0-0-|
Gb-7---7-7-7-3---3-3--3--3-3-5---5-5-5-0---0-0--0--0-0-|
B--7---7-7-7-3---3-3--3--3-3-5---5-5-5-0---0-0--0--0-0-|
p.m      - -             - -       - -             - -

             there's a curse between us  between me and
Db---------------------------------------------------------|
Ab---------------------------------------------------------|
E----------------------------------------------------------|
B--3---3-3-3-3---3-3-3-3---3-3-5---5-5-5-5---5-5-5-5---5-5-|
Gb-3---3-3-3-3---3-3-3-3---3-3-5---5-5-5-5---5-5-5-5---5-5-|
B--3---3-3-3-3---3-3-3-3---3-3-5---5-5-5-5---5-5-5-5---5-5-|
p.m      - -       - -     - -       - -       - -     - -

   you.............  i've been waiting for someone like
Db-----------------------------------------------------|
Ab-----------------------------------------------------|
E------------------------------------------------------|
B--7---7-7-7-3---3-3--3--3-3-5---5-5-5-0---0-0--0--0-0-|
Gb-7---7-7-7-3---3-3--3--3-3-5---5-5-5-0---0-0--0--0-0-|
B--7---7-7-7-3---3-3--3--3-3-5---5-5-5-0---0-0--0--0-0-|
p.m      - -             - -       - -             - -

  you....... but now you are slipping away what have you done now
Db--------------------------------------------------------|
Ab--------------------------------------------------------|
E---------------------------------------------------------|
B--7---7-7-7-3---3-3--3--3-3-5---5-5-5-5---5-5-5--5-5-5-5-|
Gb-7---7-7-7-3---3-3--3--3-3-5---5-5-5-5---5-5-5--5-5-5-5-|
B--7---7-7-7-3---3-3--3--3-3-5---5-5-5-5---5-5-5--5-5-5-5-|
p.m      - -             - -       - -       - -      - -

   why............... why does fate make us suffer
Db-----------------------------------------------------|
Ab-----------------------------------------------------|
E------------------------------------------------------|
B--7---7-7-7-3---3-3--3--3-3-5---5-5-5-0---0-0--0--0-0-|
Gb-7---7-7-7-3---3-3--3--3-3-5---5-5-5-0---0-0--0--0-0-|
B--7---7-7-7-3---3-3--3--3-3-5---5-5-5-0---0-0--0--0-0-|
p.m      - -             - -       - -             - -

             there's a curse between us  between me and
Db---------------------------------------------------------|
Ab---------------------------------------------------------|
E----------------------------------------------------------|
B--3---3-3-3-3---3-3-3-3---3-3-5---5-5-5-5---5-5-5-5---5-5-|
Gb-3---3-3-3-3---3-3-3-3---3-3-5---5-5-5-5---5-5-5-5---5-5-|
B--3---3-3-3-3---3-3-3-3---3-3-5---5-5-5-5---5-5-5-5---5-5-|
p.m      - -       - -     - -       - -       - -     - -

  YOU!!!.........................
Db--------------------------------|
Ab--------------------------------|
E---------------------------------|
B--(7)----------------------------|
Gb-(7)----------------------------|
B--(7)----------------------------|

end.






Like us on Facebook